ISO-10303-21;
HEADER;
FILE_DESCRIPTION (( 'STEP AP203' ),
    '1' );
FILE_NAME ('A_0132-000.STEP',
    '2018-12-10T13:08:32',
    ( '' ),
    ( '' ),
    'SwSTEP 2.0',
    'SolidWorks 2018',
    '' );
FILE_SCHEMA (( 'CONFIG_CONTROL_DESIGN' ));
ENDSEC;

DATA;
#1 = SECURITY_CLASSIFICATION ( '', '', #52 ) ;
#2 = MECHANICAL_CONTEXT ( 'NONE', #106, 'mechanical' ) ;
#3 = VERTEX_POINT ( 'NONE', #16 ) ;
#4 = CALENDAR_DATE ( 2018, 10, 12 ) ;
#5 = ORIENTED_EDGE ( 'NONE', *, *, #42, .F. ) ;
#6 = DATE_AND_TIME ( #303, #232 ) ;
#7 = DIRECTION ( 'NONE',  ( 0.0000000000000000000, 1.000000000000000000, 0.0000000000000000000 ) ) ;
#8 = EDGE_CURVE ( 'NONE', #54, #132, #241, .T. ) ;
#9 = EDGE_LOOP ( 'NONE', ( #80, #116, #215, #124, #248 ) ) ;
#10 = CIRCLE ( 'NONE', #84, 6.000000000000000888 ) ;
#11 = DIRECTION ( 'NONE',  ( 0.0000000000000000000, 0.0000000000000000000, 1.000000000000000000 ) ) ;
#12 = TOROIDAL_SURFACE ( 'NONE', #207, 13.99999999999999822, 6.000000000000000888 ) ;
#13 = DIRECTION ( 'NONE',  ( 0.0000000000000000000, 0.0000000000000000000, -1.000000000000000000 ) ) ;
#14 = EDGE_CURVE ( 'NONE', #300, #31, #157, .T. ) ;
#15 = DIRECTION ( 'NONE',  ( 0.0000000000000000000, 1.000000000000000000, 0.0000000000000000000 ) ) ;
#16 = CARTESIAN_POINT ( 'NONE',  ( 65.99999999999990052, -6.000000000000001776, 0.0000000000000000000 ) ) ;
#17 = VERTEX_POINT ( 'NONE', #240 ) ;
#18 = DIRECTION ( 'NONE',  ( 0.0000000000000000000, 0.0000000000000000000, -1.000000000000000000 ) ) ;
#19 = CC_DESIGN_PERSON_AND_ORGANIZATION_ASSIGNMENT ( #224, #28, ( #1 ) ) ;
#20 = CARTESIAN_POINT ( 'NONE',  ( 0.0000000000000000000, 7.347880794884120722E-16, 6.000000000000000888 ) ) ;
#21 = ADVANCED_FACE ( 'NONE', ( #221 ), #289, .T. ) ;
#22 = CIRCLE ( 'NONE', #298, 6.000000000000000888 ) ;
#23 = AXIS2_PLACEMENT_3D ( 'NONE', #168, #36, #13 ) ;
#24 = DIRECTION ( 'NONE',  ( 0.0000000000000000000, 0.0000000000000000000, -1.000000000000000000 ) ) ;
#25 = CARTESIAN_POINT ( 'NONE',  ( 80.00000000000000000, 75.00000000000000000, 0.0000000000000000000 ) ) ;
#26 = ORIENTED_EDGE ( 'NONE', *, *, #239, .F. ) ;
#27 = AXIS2_PLACEMENT_3D ( 'NONE', #123, #283, #44 ) ;
#28 = PERSON_AND_ORGANIZATION_ROLE ( 'classification_officer' ) ;
#29 = PRODUCT ( 'A_0132-000', 'A_0132-000', '', ( #2 ) ) ;
#30 = FACE_OUTER_BOUND ( 'NONE', #190, .T. ) ;
#31 = VERTEX_POINT ( 'NONE', #143 ) ;
#32 = COORDINATED_UNIVERSAL_TIME_OFFSET ( 1, 0, .AHEAD. ) ;
#33 = AXIS2_PLACEMENT_3D ( 'NONE', #255, #252, #294 ) ;
#34 = ORIENTED_EDGE ( 'NONE', *, *, #254, .T. ) ;
#35 = ORIENTED_EDGE ( 'NONE', *, *, #219, .F. ) ;
#36 = DIRECTION ( 'NONE',  ( -6.938893903907229955E-15, 1.000000000000000000, 0.0000000000000000000 ) ) ;
#37 = FACE_OUTER_BOUND ( 'NONE', #112, .T. ) ;
#38 = DIRECTION ( 'NONE',  ( 0.0000000000000000000, 1.000000000000000000, 0.0000000000000000000 ) ) ;
#39 = DIRECTION ( 'NONE',  ( 0.0000000000000000000, 0.0000000000000000000, -1.000000000000000000 ) ) ;
#40 = DIRECTION ( 'NONE',  ( 0.0000000000000000000, 0.0000000000000000000, 1.000000000000000000 ) ) ;
#41 = DATE_AND_TIME ( #191, #249 ) ;
#42 = EDGE_CURVE ( 'NONE', #31, #54, #247, .T. ) ;
#43 = LOCAL_TIME ( 14, 8, 32.00000000000000000, #107 ) ;
#44 = DIRECTION ( 'NONE',  ( 0.0000000000000000000, 0.0000000000000000000, -1.000000000000000000 ) ) ;
#45 = TOROIDAL_SURFACE ( 'NONE', #277, 13.99999999999999822, 6.000000000000000888 ) ;
#46 = ORIENTED_EDGE ( 'NONE', *, *, #268, .T. ) ;
#47 = CARTESIAN_POINT ( 'NONE',  ( 80.00000000000000000, 14.00000000000009948, 0.0000000000000000000 ) ) ;
#48 = FACE_OUTER_BOUND ( 'NONE', #78, .T. ) ;
#49 = DIRECTION ( 'NONE',  ( 1.000000000000000000, 0.0000000000000000000, 0.0000000000000000000 ) ) ;
#50 = AXIS2_PLACEMENT_3D ( 'NONE', #176, #120, #266 ) ;
#51 = AXIS2_PLACEMENT_3D ( 'NONE', #148, #93, #178 ) ;
#52 = SECURITY_CLASSIFICATION_LEVEL ( 'unclassified' ) ;
#53 = ORIENTED_EDGE ( 'NONE', *, *, #227, .F. ) ;
#54 = VERTEX_POINT ( 'NONE', #142 ) ;
#55 = PRODUCT_DEFINITION_SHAPE ( 'NONE', 'NONE',  #233 ) ;
#56 = ORIENTED_EDGE ( 'NONE', *, *, #222, .T. ) ;
#57 = PERSON_AND_ORGANIZATION ( #299, #171 ) ;
#58 = APPROVAL ( #186, 'NEURÈENÝ' ) ;
#59 = VERTEX_POINT ( 'NONE', #262 ) ;
#60 = ORIENTED_EDGE ( 'NONE', *, *, #42, .T. ) ;
#61 = PERSON_AND_ORGANIZATION ( #299, #171 ) ;
#62 = CARTESIAN_POINT ( 'NONE',  ( 65.99999999999990052, 7.347880794884120722E-16, 6.000000000000000888 ) ) ;
#63 = APPROVAL_DATE_TIME ( #280, #183 ) ;
#64 = DIRECTION ( 'NONE',  ( 0.0000000000000000000, 1.000000000000000000, 0.0000000000000000000 ) ) ;
#65 = AXIS2_PLACEMENT_3D ( 'NONE', #220, #173, #198 ) ;
#66 = APPROVAL_PERSON_ORGANIZATION ( #61, #58, #293 ) ;
#67 = CIRCLE ( 'NONE', #314, 6.000000000000000888 ) ;
#68 = CARTESIAN_POINT ( 'NONE',  ( 80.00000000000000000, 14.00000000000009948, 0.0000000000000000000 ) ) ;
#69 = CARTESIAN_POINT ( 'NONE',  ( 80.00000000000000000, 14.00000000000009948, -6.000000000000000888 ) ) ;
#70 = ORIENTED_EDGE ( 'NONE', *, *, #130, .T. ) ;
#71 = CC_DESIGN_APPROVAL ( #183, ( #1 ) ) ;
#72 = DIRECTION ( 'NONE',  ( 1.000000000000000000, 0.0000000000000000000, 0.0000000000000000000 ) ) ;
#73 = CARTESIAN_POINT ( 'NONE',  ( 0.0000000000000000000, 7.347880794884120722E-16, 6.000000000000000888 ) ) ;
#74 = CARTESIAN_POINT ( 'NONE',  ( 0.0000000000000000000, 0.0000000000000000000, -6.000000000000000888 ) ) ;
#75 = ADVANCED_FACE ( 'NONE', ( #127 ), #12, .T. ) ;
#76 = DIRECTION ( 'NONE',  ( 1.000000000000000000, 0.0000000000000000000, 0.0000000000000000000 ) ) ;
#77 = EDGE_CURVE ( 'NONE', #132, #205, #281, .T. ) ;
#78 = EDGE_LOOP ( 'NONE', ( #122, #70 ) ) ;
#79 = APPROVAL_ROLE ( '' ) ;
#80 = ORIENTED_EDGE ( 'NONE', *, *, #268, .F. ) ;
#81 = PERSON_AND_ORGANIZATION ( #299, #171 ) ;
#82 =( LENGTH_UNIT ( ) NAMED_UNIT ( * ) SI_UNIT ( .MILLI., .METRE. ) );
#83 = CIRCLE ( 'NONE', #257, 6.000000000000000888 ) ;
#84 = AXIS2_PLACEMENT_3D ( 'NONE', #225, #246, #24 ) ;
#85 = ORIENTED_EDGE ( 'NONE', *, *, #109, .F. ) ;
#86 = ORIENTED_EDGE ( 'NONE', *, *, #242, .T. ) ;
#87 = CC_DESIGN_APPROVAL ( #58, ( #233 ) ) ;
#88 = DIRECTION ( 'NONE',  ( 0.0000000000000000000, 0.0000000000000000000, -1.000000000000000000 ) ) ;
#89 = DIRECTION ( 'NONE',  ( 1.000000000000000000, 0.0000000000000000000, 0.0000000000000000000 ) ) ;
#90 = VECTOR ( 'NONE', #175, 1000.000000000000000 ) ;
#91 = CARTESIAN_POINT ( 'NONE',  ( 65.99999999999990052, 0.0000000000000000000, 0.0000000000000000000 ) ) ;
#92 = CC_DESIGN_DATE_AND_TIME_ASSIGNMENT ( #136, #273, ( #233 ) ) ;
#93 = DIRECTION ( 'NONE',  ( 0.0000000000000000000, 0.0000000000000000000, 1.000000000000000000 ) ) ;
#94 = ORIENTED_EDGE ( 'NONE', *, *, #193, .F. ) ;
#95 = CIRCLE ( 'NONE', #265, 6.000000000000000888 ) ;
#96 = DIRECTION ( 'NONE',  ( 0.0000000000000000000, 1.000000000000000000, 0.0000000000000000000 ) ) ;
#97 = CARTESIAN_POINT ( 'NONE',  ( 65.99999999999990052, 0.0000000000000000000, -6.000000000000000888 ) ) ;
#98 = DIRECTION ( 'NONE',  ( 0.0000000000000000000, 0.0000000000000000000, -1.000000000000000000 ) ) ;
#99 = CYLINDRICAL_SURFACE ( 'NONE', #113, 6.000000000000000888 ) ;
#100 = ORIENTED_EDGE ( 'NONE', *, *, #254, .F. ) ;
#101 = LINE ( 'NONE', #20, #210 ) ;
#102 = DIRECTION ( 'NONE',  ( 0.0000000000000000000, 0.0000000000000000000, -1.000000000000000000 ) ) ;
#103 = CC_DESIGN_APPROVAL ( #140, ( #285 ) ) ;
#104 = PERSON_AND_ORGANIZATION_ROLE ( 'design_owner' ) ;
#105 = VERTEX_POINT ( 'NONE', #62 ) ;
#106 = APPLICATION_CONTEXT ( 'configuration controlled 3d designs of mechanical parts and assemblies' ) ;
#107 = COORDINATED_UNIVERSAL_TIME_OFFSET ( 1, 0, .AHEAD. ) ;
#108 = FACE_OUTER_BOUND ( 'NONE', #282, .T. ) ;
#109 = EDGE_CURVE ( 'NONE', #271, #310, #22, .T. ) ;
#110 = DATE_AND_TIME ( #4, #187 ) ;
#111 = DIRECTION ( 'NONE',  ( 1.000000000000000000, 0.0000000000000000000, 0.0000000000000000000 ) ) ;
#112 = EDGE_LOOP ( 'NONE', ( #165, #46, #180, #53, #26 ) ) ;
#113 = AXIS2_PLACEMENT_3D ( 'NONE', #317, #288, #102 ) ;
#114 = CARTESIAN_POINT ( 'NONE',  ( 80.00000000000000000, 75.00000000000000000, 6.000000000000000888 ) ) ;
#115 = ADVANCED_FACE ( 'NONE', ( #30 ), #45, .T. ) ;
#116 = ORIENTED_EDGE ( 'NONE', *, *, #109, .T. ) ;
#117 = APPROVAL_DATE_TIME ( #41, #140 ) ;
#118 = DIRECTION ( 'NONE',  ( 1.000000000000000000, 0.0000000000000000000, 0.0000000000000000000 ) ) ;
#119 = CARTESIAN_POINT ( 'NONE',  ( 80.00000000000000000, 75.00000000000000000, -6.000000000000000888 ) ) ;
#120 = DIRECTION ( 'NONE',  ( -6.938893903907229955E-15, 1.000000000000000000, 0.0000000000000000000 ) ) ;
#121 = PRODUCT_RELATED_PRODUCT_CATEGORY ( 'detail', '', ( #29 ) ) ;
#122 = ORIENTED_EDGE ( 'NONE', *, *, #77, .T. ) ;
#123 = CARTESIAN_POINT ( 'NONE',  ( 80.00000000000000000, 14.00000000000009592, 0.0000000000000000000 ) ) ;
#124 = ORIENTED_EDGE ( 'NONE', *, *, #279, .F. ) ;
#125 = ADVANCED_BREP_SHAPE_REPRESENTATION ( 'A_0132-000', ( #208, #33 ), #236 ) ;
#126 = PLANE ( 'NONE',  #177 ) ;
#127 = FACE_OUTER_BOUND ( 'NONE', #128, .T. ) ;
#128 = EDGE_LOOP ( 'NONE', ( #230, #256, #278, #237, #100, #35 ) ) ;
#129 = COORDINATED_UNIVERSAL_TIME_OFFSET ( 1, 0, .AHEAD. ) ;
#130 = EDGE_CURVE ( 'NONE', #205, #132, #226, .T. ) ;
#131 = APPLICATION_PROTOCOL_DEFINITION ( 'international standard', 'config_control_design', 1994, #206 ) ;
#132 = VERTEX_POINT ( 'NONE', #114 ) ;
#133 = CALENDAR_DATE ( 2018, 10, 12 ) ;
#134 = UNCERTAINTY_MEASURE_WITH_UNIT (LENGTH_MEASURE( 1.000000000000000082E-05 ), #82, 'distance_accuracy_value', 'NONE');
#135 = APPROVAL_STATUS ( 'not_yet_approved' ) ;
#136 = DATE_AND_TIME ( #202, #181 ) ;
#137 = EDGE_CURVE ( 'NONE', #105, #3, #95, .T. ) ;
#138 = CIRCLE ( 'NONE', #50, 6.000000000000000888 ) ;
#139 = ORIENTED_EDGE ( 'NONE', *, *, #193, .T. ) ;
#140 = APPROVAL ( #135, 'NEURÈENÝ' ) ;
#141 = DIRECTION ( 'NONE',  ( 0.0000000000000000000, 0.0000000000000000000, -1.000000000000000000 ) ) ;
#142 = CARTESIAN_POINT ( 'NONE',  ( 80.00000000000000000, 14.00000000000009592, 6.000000000000000888 ) ) ;
#143 = CARTESIAN_POINT ( 'NONE',  ( 74.00000000000000000, 14.00000000000005329, -7.347880794884114806E-16 ) ) ;
#144 = PLANE ( 'NONE',  #65 ) ;
#145 = CC_DESIGN_PERSON_AND_ORGANIZATION_ASSIGNMENT ( #57, #104, ( #29 ) ) ;
#146 = CARTESIAN_POINT ( 'NONE',  ( 65.99999999999990052, 0.0000000000000000000, 0.0000000000000000000 ) ) ;
#147 = DIRECTION ( 'NONE',  ( 0.0000000000000000000, 0.0000000000000000000, -1.000000000000000000 ) ) ;
#148 = CARTESIAN_POINT ( 'NONE',  ( 66.00000000000000000, 13.99999999999999822, 0.0000000000000000000 ) ) ;
#149 = ORIENTED_EDGE ( 'NONE', *, *, #130, .F. ) ;
#150 = APPROVAL_DATE_TIME ( #6, #58 ) ;
#151 = CYLINDRICAL_SURFACE ( 'NONE', #199, 6.000000000000000888 ) ;
#152 = AXIS2_PLACEMENT_3D ( 'NONE', #195, #40, #89 ) ;
#153 = ORIENTED_EDGE ( 'NONE', *, *, #77, .F. ) ;
#154 = ORIENTED_EDGE ( 'NONE', *, *, #137, .T. ) ;
#155 = DIRECTION ( 'NONE',  ( 0.0000000000000000000, 0.0000000000000000000, -1.000000000000000000 ) ) ;
#156 = AXIS2_PLACEMENT_3D ( 'NONE', #68, #218, #243 ) ;
#157 = CIRCLE ( 'NONE', #152, 7.999999999999992895 ) ;
#158 = DATE_TIME_ROLE ( 'classification_date' ) ;
#159 = PERSON_AND_ORGANIZATION ( #299, #171 ) ;
#160 = APPROVAL_ROLE ( '' ) ;
#161 = LINE ( 'NONE', #69, #90 ) ;
#162 = DESIGN_CONTEXT ( 'detailed design', #206, 'design' ) ;
#163 = PERSON_AND_ORGANIZATION_ROLE ( 'creator' ) ;
#164 = COORDINATED_UNIVERSAL_TIME_OFFSET ( 1, 0, .AHEAD. ) ;
#165 = ORIENTED_EDGE ( 'NONE', *, *, #275, .T. ) ;
#166 = CC_DESIGN_DATE_AND_TIME_ASSIGNMENT ( #110, #158, ( #1 ) ) ;
#167 = CARTESIAN_POINT ( 'NONE',  ( 0.0000000000000000000, 0.0000000000000000000, 0.0000000000000000000 ) ) ;
#168 = CARTESIAN_POINT ( 'NONE',  ( 80.00000000000000000, 14.00000000000009592, 0.0000000000000000000 ) ) ;
#169 = EDGE_LOOP ( 'NONE', ( #139, #287, #258, #153, #231 ) ) ;
#170 = CARTESIAN_POINT ( 'NONE',  ( 80.00000000000000000, 75.00000000000000000, 0.0000000000000000000 ) ) ;
#171 = ORGANIZATION ( 'NEURÈENÝ', 'NEURÈENÝ', '' ) ;
#172 = AXIS2_PLACEMENT_3D ( 'NONE', #259, #15, #39 ) ;
#173 = DIRECTION ( 'NONE',  ( 1.000000000000000000, 0.0000000000000000000, 0.0000000000000000000 ) ) ;
#174 = CIRCLE ( 'NONE', #214, 6.000000000000000888 ) ;
#175 = DIRECTION ( 'NONE',  ( 0.0000000000000000000, 1.000000000000000000, 0.0000000000000000000 ) ) ;
#176 = CARTESIAN_POINT ( 'NONE',  ( 80.00000000000000000, 14.00000000000009592, 0.0000000000000000000 ) ) ;
#177 = AXIS2_PLACEMENT_3D ( 'NONE', #25, #7, #155 ) ;
#178 = DIRECTION ( 'NONE',  ( 1.000000000000000000, 0.0000000000000000000, 0.0000000000000000000 ) ) ;
#179 = ADVANCED_FACE ( 'NONE', ( #182 ), #151, .T. ) ;
#180 = ORIENTED_EDGE ( 'NONE', *, *, #222, .F. ) ;
#181 = LOCAL_TIME ( 14, 8, 32.00000000000000000, #263 ) ;
#182 = FACE_OUTER_BOUND ( 'NONE', #305, .T. ) ;
#183 = APPROVAL ( #228, 'NEURÈENÝ' ) ;
#184 = CARTESIAN_POINT ( 'NONE',  ( 0.0000000000000000000, 0.0000000000000000000, 0.0000000000000000000 ) ) ;
#185 = APPLICATION_PROTOCOL_DEFINITION ( 'international standard', 'config_control_design', 1994, #106 ) ;
#186 = APPROVAL_STATUS ( 'not_yet_approved' ) ;
#187 = LOCAL_TIME ( 14, 8, 32.00000000000000000, #164 ) ;
#188 = PERSON_AND_ORGANIZATION_ROLE ( 'creator' ) ;
#189 = AXIS2_PLACEMENT_3D ( 'NONE', #170, #64, #213 ) ;
#190 = EDGE_LOOP ( 'NONE', ( #154, #86, #94, #5, #269, #56 ) ) ;
#191 = CALENDAR_DATE ( 2018, 10, 12 ) ;
#192 = CIRCLE ( 'NONE', #203, 6.000000000000000888 ) ;
#193 = EDGE_CURVE ( 'NONE', #54, #17, #306, .T. ) ;
#194 = DIRECTION ( 'NONE',  ( 1.000000000000000000, 0.0000000000000000000, 0.0000000000000000000 ) ) ;
#195 = CARTESIAN_POINT ( 'NONE',  ( 66.00000000000000000, 13.99999999999999822, -7.347880794884120722E-16 ) ) ;
#196 = APPROVAL_PERSON_ORGANIZATION ( #316, #140, #160 ) ;
#197 = CARTESIAN_POINT ( 'NONE',  ( 80.00000000000000000, 14.00000000000009948, 6.000000000000000888 ) ) ;
#198 = DIRECTION ( 'NONE',  ( 0.0000000000000000000, 0.0000000000000000000, -1.000000000000000000 ) ) ;
#199 = AXIS2_PLACEMENT_3D ( 'NONE', #47, #96, #311 ) ;
#200 = CARTESIAN_POINT ( 'NONE',  ( 80.00000000000000000, 14.00000000000009592, 0.0000000000000000000 ) ) ;
#201 = ADVANCED_FACE ( 'NONE', ( #264 ), #267, .T. ) ;
#202 = CALENDAR_DATE ( 2018, 10, 12 ) ;
#203 = AXIS2_PLACEMENT_3D ( 'NONE', #200, #312, #147 ) ;
#204 = CARTESIAN_POINT ( 'NONE',  ( 65.99999999999990052, 6.000000000000000888, -7.347880794884119736E-16 ) ) ;
#205 = VERTEX_POINT ( 'NONE', #119 ) ;
#206 = APPLICATION_CONTEXT ( 'configuration controlled 3d designs of mechanical parts and assemblies' ) ;
#207 = AXIS2_PLACEMENT_3D ( 'NONE', #260, #211, #111 ) ;
#208 = MANIFOLD_SOLID_BREP ( 'Táhnout po køivce1', #238 ) ;
#209 = EDGE_CURVE ( 'NONE', #59, #205, #161, .T. ) ;
#210 = VECTOR ( 'NONE', #245, 1000.000000000000000 ) ;
#211 = DIRECTION ( 'NONE',  ( 0.0000000000000000000, 0.0000000000000000000, 1.000000000000000000 ) ) ;
#212 = APPROVAL_PERSON_ORGANIZATION ( #261, #183, #79 ) ;
#213 = DIRECTION ( 'NONE',  ( 0.0000000000000000000, 0.0000000000000000000, -1.000000000000000000 ) ) ;
#214 = AXIS2_PLACEMENT_3D ( 'NONE', #184, #76, #291 ) ;
#215 = ORIENTED_EDGE ( 'NONE', *, *, #239, .T. ) ;
#216 = ORIENTED_EDGE ( 'NONE', *, *, #275, .F. ) ;
#217 = DIRECTION ( 'NONE',  ( 0.0000000000000000000, 0.0000000000000000000, -1.000000000000000000 ) ) ;
#218 = DIRECTION ( 'NONE',  ( 0.0000000000000000000, 1.000000000000000000, 0.0000000000000000000 ) ) ;
#219 = EDGE_CURVE ( 'NONE', #17, #59, #138, .T. ) ;
#220 = CARTESIAN_POINT ( 'NONE',  ( 0.0000000000000000000, 0.0000000000000000000, 0.0000000000000000000 ) ) ;
#221 = FACE_OUTER_BOUND ( 'NONE', #9, .T. ) ;
#222 = EDGE_CURVE ( 'NONE', #300, #105, #83, .T. ) ;
#223 = ADVANCED_FACE ( 'NONE', ( #108 ), #144, .F. ) ;
#224 = PERSON_AND_ORGANIZATION ( #299, #171 ) ;
#225 = CARTESIAN_POINT ( 'NONE',  ( 65.99999999999990052, 0.0000000000000000000, 0.0000000000000000000 ) ) ;
#226 = CIRCLE ( 'NONE', #189, 6.000000000000000888 ) ;
#227 = EDGE_CURVE ( 'NONE', #244, #300, #67, .T. ) ;
#228 = APPROVAL_STATUS ( 'not_yet_approved' ) ;
#229 = VECTOR ( 'NONE', #38, 1000.000000000000000 ) ;
#230 = ORIENTED_EDGE ( 'NONE', *, *, #242, .F. ) ;
#231 = ORIENTED_EDGE ( 'NONE', *, *, #8, .F. ) ;
#232 = LOCAL_TIME ( 14, 8, 32.00000000000000000, #32 ) ;
#233 = PRODUCT_DEFINITION ( 'NEZNÁMÝ', '', #285, #162 ) ;
#234 = ORIENTED_EDGE ( 'NONE', *, *, #209, .F. ) ;
#235 = DIRECTION ( 'NONE',  ( 1.000000000000000000, 0.0000000000000000000, 0.0000000000000000000 ) ) ;
#236 =( GEOMETRIC_REPRESENTATION_CONTEXT ( 3 ) GLOBAL_UNCERTAINTY_ASSIGNED_CONTEXT ( ( #134 ) ) GLOBAL_UNIT_ASSIGNED_CONTEXT ( ( #82, #297, #253 ) ) REPRESENTATION_CONTEXT ( 'NONE', 'WORKASPACE' ) );
#237 = ORIENTED_EDGE ( 'NONE', *, *, #14, .T. ) ;
#238 = CLOSED_SHELL ( 'NONE', ( #115, #201, #292, #179, #75, #21, #315, #223 ) ) ;
#239 = EDGE_CURVE ( 'NONE', #310, #244, #270, .T. ) ;
#240 = CARTESIAN_POINT ( 'NONE',  ( 86.00000000000000000, 14.00000000000013678, 0.0000000000000000000 ) ) ;
#241 = LINE ( 'NONE', #197, #229 ) ;
#242 = EDGE_CURVE ( 'NONE', #3, #17, #284, .T. ) ;
#243 = DIRECTION ( 'NONE',  ( 0.0000000000000000000, 0.0000000000000000000, 1.000000000000000000 ) ) ;
#244 = VERTEX_POINT ( 'NONE', #97 ) ;
#245 = DIRECTION ( 'NONE',  ( 1.000000000000000000, 0.0000000000000000000, 0.0000000000000000000 ) ) ;
#246 = DIRECTION ( 'NONE',  ( 1.000000000000000000, 0.0000000000000000000, 0.0000000000000000000 ) ) ;
#247 = CIRCLE ( 'NONE', #23, 6.000000000000000888 ) ;
#248 = ORIENTED_EDGE ( 'NONE', *, *, #137, .F. ) ;
#249 = LOCAL_TIME ( 14, 8, 32.00000000000000000, #129 ) ;
#250 = AXIS2_PLACEMENT_3D ( 'NONE', #167, #235, #88 ) ;
#251 = VECTOR ( 'NONE', #308, 1000.000000000000000 ) ;
#252 = DIRECTION ( 'NONE',  ( 0.0000000000000000000, 0.0000000000000000000, 1.000000000000000000 ) ) ;
#253 =( NAMED_UNIT ( * ) SI_UNIT ( $, .STERADIAN. ) SOLID_ANGLE_UNIT ( ) );
#254 = EDGE_CURVE ( 'NONE', #59, #31, #192, .T. ) ;
#255 = CARTESIAN_POINT ( 'NONE',  ( 0.0000000000000000000, 0.0000000000000000000, 0.0000000000000000000 ) ) ;
#256 = ORIENTED_EDGE ( 'NONE', *, *, #279, .T. ) ;
#257 = AXIS2_PLACEMENT_3D ( 'NONE', #286, #49, #98 ) ;
#258 = ORIENTED_EDGE ( 'NONE', *, *, #209, .T. ) ;
#259 = CARTESIAN_POINT ( 'NONE',  ( 80.00000000000000000, 75.00000000000000000, 0.0000000000000000000 ) ) ;
#260 = CARTESIAN_POINT ( 'NONE',  ( 66.00000000000000000, 13.99999999999999822, 0.0000000000000000000 ) ) ;
#261 = PERSON_AND_ORGANIZATION ( #299, #171 ) ;
#262 = CARTESIAN_POINT ( 'NONE',  ( 80.00000000000000000, 14.00000000000009592, -6.000000000000000888 ) ) ;
#263 = COORDINATED_UNIVERSAL_TIME_OFFSET ( 1, 0, .AHEAD. ) ;
#264 = FACE_OUTER_BOUND ( 'NONE', #169, .T. ) ;
#265 = AXIS2_PLACEMENT_3D ( 'NONE', #91, #72, #217 ) ;
#266 = DIRECTION ( 'NONE',  ( 0.0000000000000000000, 0.0000000000000000000, -1.000000000000000000 ) ) ;
#267 = CYLINDRICAL_SURFACE ( 'NONE', #156, 6.000000000000000888 ) ;
#268 = EDGE_CURVE ( 'NONE', #271, #105, #101, .T. ) ;
#269 = ORIENTED_EDGE ( 'NONE', *, *, #14, .F. ) ;
#270 = LINE ( 'NONE', #309, #251 ) ;
#271 = VERTEX_POINT ( 'NONE', #73 ) ;
#272 = PERSON_AND_ORGANIZATION_ROLE ( 'design_supplier' ) ;
#273 = DATE_TIME_ROLE ( 'creation_date' ) ;
#274 = CC_DESIGN_PERSON_AND_ORGANIZATION_ASSIGNMENT ( #81, #188, ( #233 ) ) ;
#275 = EDGE_CURVE ( 'NONE', #310, #271, #174, .T. ) ;
#276 = DIRECTION ( 'NONE',  ( 1.000000000000000000, 0.0000000000000000000, 0.0000000000000000000 ) ) ;
#277 = AXIS2_PLACEMENT_3D ( 'NONE', #304, #11, #194 ) ;
#278 = ORIENTED_EDGE ( 'NONE', *, *, #227, .T. ) ;
#279 = EDGE_CURVE ( 'NONE', #3, #244, #10, .T. ) ;
#280 = DATE_AND_TIME ( #133, #43 ) ;
#281 = CIRCLE ( 'NONE', #172, 6.000000000000000888 ) ;
#282 = EDGE_LOOP ( 'NONE', ( #216, #85 ) ) ;
#283 = DIRECTION ( 'NONE',  ( -6.938893903907229955E-15, 1.000000000000000000, 0.0000000000000000000 ) ) ;
#284 = CIRCLE ( 'NONE', #51, 20.00000000000000355 ) ;
#285 = PRODUCT_DEFINITION_FORMATION_WITH_SPECIFIED_SOURCE ( 'LIBOVOLNÝ', '', #29, .NOT_KNOWN. ) ;
#286 = CARTESIAN_POINT ( 'NONE',  ( 65.99999999999990052, 0.0000000000000000000, 0.0000000000000000000 ) ) ;
#287 = ORIENTED_EDGE ( 'NONE', *, *, #219, .T. ) ;
#288 = DIRECTION ( 'NONE',  ( 1.000000000000000000, 0.0000000000000000000, 0.0000000000000000000 ) ) ;
#289 = CYLINDRICAL_SURFACE ( 'NONE', #250, 6.000000000000000888 ) ;
#290 = CC_DESIGN_PERSON_AND_ORGANIZATION_ASSIGNMENT ( #301, #163, ( #285 ) ) ;
#291 = DIRECTION ( 'NONE',  ( 0.0000000000000000000, 0.0000000000000000000, -1.000000000000000000 ) ) ;
#292 = ADVANCED_FACE ( 'NONE', ( #37 ), #99, .T. ) ;
#293 = APPROVAL_ROLE ( '' ) ;
#294 = DIRECTION ( 'NONE',  ( 1.000000000000000000, 0.0000000000000000000, 0.0000000000000000000 ) ) ;
#295 = ORIENTED_EDGE ( 'NONE', *, *, #8, .T. ) ;
#296 = CC_DESIGN_SECURITY_CLASSIFICATION ( #1, ( #285 ) ) ;
#297 =( NAMED_UNIT ( * ) PLANE_ANGLE_UNIT ( ) SI_UNIT ( $, .RADIAN. ) );
#298 = AXIS2_PLACEMENT_3D ( 'NONE', #302, #276, #141 ) ;
#299 = PERSON ( 'NEURÈENÝ', 'NEURÈENÝ', 'NEURÈENÝ', ('NEURÈENÝ'), ('NEURÈENÝ'), ('NEURÈENÝ') ) ;
#300 = VERTEX_POINT ( 'NONE', #204 ) ;
#301 = PERSON_AND_ORGANIZATION ( #299, #171 ) ;
#302 = CARTESIAN_POINT ( 'NONE',  ( 0.0000000000000000000, 0.0000000000000000000, 0.0000000000000000000 ) ) ;
#303 = CALENDAR_DATE ( 2018, 10, 12 ) ;
#304 = CARTESIAN_POINT ( 'NONE',  ( 66.00000000000000000, 13.99999999999999822, 0.0000000000000000000 ) ) ;
#305 = EDGE_LOOP ( 'NONE', ( #234, #34, #60, #295, #149 ) ) ;
#306 = CIRCLE ( 'NONE', #27, 6.000000000000000888 ) ;
#307 = CC_DESIGN_PERSON_AND_ORGANIZATION_ASSIGNMENT ( #159, #272, ( #285 ) ) ;
#308 = DIRECTION ( 'NONE',  ( 1.000000000000000000, 0.0000000000000000000, 0.0000000000000000000 ) ) ;
#309 = CARTESIAN_POINT ( 'NONE',  ( 0.0000000000000000000, 0.0000000000000000000, -6.000000000000000888 ) ) ;
#310 = VERTEX_POINT ( 'NONE', #74 ) ;
#311 = DIRECTION ( 'NONE',  ( 0.0000000000000000000, 0.0000000000000000000, 1.000000000000000000 ) ) ;
#312 = DIRECTION ( 'NONE',  ( -6.938893903907229955E-15, 1.000000000000000000, 0.0000000000000000000 ) ) ;
#313 = SHAPE_DEFINITION_REPRESENTATION ( #55, #125 ) ;
#314 = AXIS2_PLACEMENT_3D ( 'NONE', #146, #118, #18 ) ;
#315 = ADVANCED_FACE ( 'NONE', ( #48 ), #126, .T. ) ;
#316 = PERSON_AND_ORGANIZATION ( #299, #171 ) ;
#317 = CARTESIAN_POINT ( 'NONE',  ( 0.0000000000000000000, 0.0000000000000000000, 0.0000000000000000000 ) ) ;
ENDSEC;
END-ISO-10303-21;
