ISO-10303-21;
HEADER;
FILE_DESCRIPTION (( 'STEP AP214' ),
    '1' );
FILE_NAME ('GS_16c76-120x110-VSG_ESG.STEP',
    '2021-04-16T12:55:28',
    ( '' ),
    ( '' ),
    'SwSTEP 2.0',
    'SolidWorks 2019',
    '' );
FILE_SCHEMA (( 'AUTOMOTIVE_DESIGN' ));
ENDSEC;

DATA;
#1 = VECTOR ( 'NONE', #23, 1000.000000000000000 ) ;
#2 = DIRECTION ( 'NONE',  ( 1.000000000000000000, 0.000000000000000000, 0.000000000000000000 ) ) ;
#3 = PLANE ( 'NONE',  #74 ) ;
#4 = CLOSED_SHELL ( 'NONE', ( #143, #110, #68, #56, #202, #185 ) ) ;
#5 =( LENGTH_UNIT ( ) NAMED_UNIT ( * ) SI_UNIT ( .MILLI., .METRE. ) );
#6 = DIRECTION ( 'NONE',  ( -1.000000000000000000, 0.000000000000000000, -0.000000000000000000 ) ) ;
#7 = PLANE ( 'NONE',  #71 ) ;
#8 = CARTESIAN_POINT ( 'NONE',  ( 0.000000000000000000, 0.000000000000000000, 0.000000000000000000 ) ) ;
#9 = APPLICATION_CONTEXT ( 'automotive_design' ) ;
#10 = PRODUCT_CONTEXT ( 'NONE', #9, 'mechanical' ) ;
#11 = PRESENTATION_LAYER_ASSIGNMENT (  '', '', ( #117 ) ) ;
#12 = ORIENTED_EDGE ( 'NONE', *, *, #37, .F. ) ;
#13 = VERTEX_POINT ( 'NONE', #194 ) ;
#14 = EDGE_CURVE ( 'NONE', #58, #99, #127, .T. ) ;
#15 = EDGE_CURVE ( 'NONE', #31, #13, #106, .T. ) ;
#16 =( GEOMETRIC_REPRESENTATION_CONTEXT ( 3 ) GLOBAL_UNCERTAINTY_ASSIGNED_CONTEXT ( ( #53 ) ) GLOBAL_UNIT_ASSIGNED_CONTEXT ( ( #5, #181, #195 ) ) REPRESENTATION_CONTEXT ( 'NONE', 'WORKASPACE' ) );
#17 = DIRECTION ( 'NONE',  ( -0.000000000000000000, -0.000000000000000000, -1.000000000000000000 ) ) ;
#18 = ORIENTED_EDGE ( 'NONE', *, *, #51, .F. ) ;
#19 = CARTESIAN_POINT ( 'NONE',  ( 0.000000000000000000, 1200.000000000000000, 0.000000000000000000 ) ) ;
#20 = UNCERTAINTY_MEASURE_WITH_UNIT (LENGTH_MEASURE( 1.000000000000000082E-05 ), #141, 'distance_accuracy_value', 'NONE');
#21 = LINE ( 'NONE', #131, #113 ) ;
#22 = FACE_OUTER_BOUND ( 'NONE', #72, .T. ) ;
#23 = DIRECTION ( 'NONE',  ( 1.000000000000000000, 0.000000000000000000, 0.000000000000000000 ) ) ;
#24 = AXIS2_PLACEMENT_3D ( 'NONE', #8, #88, #116 ) ;
#25 = PRODUCT_DEFINITION_FORMATION_WITH_SPECIFIED_SOURCE ( 'LIBOVOLNÝ', '', #130, .NOT_KNOWN. ) ;
#26 = ORIENTED_EDGE ( 'NONE', *, *, #123, .T. ) ;
#27 = CARTESIAN_POINT ( 'NONE',  ( 1100.000000000000000, 0.000000000000000000, 0.000000000000000000 ) ) ;
#28 = ORIENTED_EDGE ( 'NONE', *, *, #86, .F. ) ;
#29 = ORIENTED_EDGE ( 'NONE', *, *, #151, .T. ) ;
#30 = ORIENTED_EDGE ( 'NONE', *, *, #51, .T. ) ;
#31 = VERTEX_POINT ( 'NONE', #135 ) ;
#32 =( NAMED_UNIT ( * ) SI_UNIT ( $, .STERADIAN. ) SOLID_ANGLE_UNIT ( ) );
#33 = APPLICATION_CONTEXT ( 'automotive_design' ) ;
#34 = VERTEX_POINT ( 'NONE', #193 ) ;
#35 = FACE_OUTER_BOUND ( 'NONE', #176, .T. ) ;
#36 = CARTESIAN_POINT ( 'NONE',  ( 0.000000000000000000, 0.000000000000000000, 0.000000000000000000 ) ) ;
#37 = EDGE_CURVE ( 'NONE', #13, #162, #153, .T. ) ;
#38 = SURFACE_STYLE_USAGE ( .BOTH. , #180 ) ;
#39 = MANIFOLD_SOLID_BREP ( 'Pøidat vysunutím1', #4 ) ;
#40 = CARTESIAN_POINT ( 'NONE',  ( 1100.000000000000000, 1200.000000000000000, 16.76000000000000156 ) ) ;
#41 = PRESENTATION_STYLE_ASSIGNMENT (( #38 ) ) ;
#42 = ORIENTED_EDGE ( 'NONE', *, *, #14, .F. ) ;
#43 = PRODUCT_DEFINITION ( 'NEZNÁMÝ', '', #25, #79 ) ;
#44 = ORIENTED_EDGE ( 'NONE', *, *, #151, .F. ) ;
#45 = VECTOR ( 'NONE', #164, 1000.000000000000000 ) ;
#46 = SURFACE_SIDE_STYLE ('',( #122 ) ) ;
#47 = DIRECTION ( 'NONE',  ( -1.000000000000000000, 0.000000000000000000, 0.000000000000000000 ) ) ;
#48 = VECTOR ( 'NONE', #144, 1000.000000000000000 ) ;
#49 = DIRECTION ( 'NONE',  ( -1.000000000000000000, -0.000000000000000000, -0.000000000000000000 ) ) ;
#50 = EDGE_CURVE ( 'NONE', #13, #172, #104, .T. ) ;
#51 = EDGE_CURVE ( 'NONE', #170, #31, #168, .T. ) ;
#52 = FILL_AREA_STYLE ('',( #161 ) ) ;
#53 = UNCERTAINTY_MEASURE_WITH_UNIT (LENGTH_MEASURE( 1.000000000000000082E-05 ), #5, 'distance_accuracy_value', 'NONE');
#54 = LINE ( 'NONE', #19, #169 ) ;
#55 = DIRECTION ( 'NONE',  ( 0.000000000000000000, 0.000000000000000000, -1.000000000000000000 ) ) ;
#56 = ADVANCED_FACE ( 'NONE', ( #148 ), #7, .F. ) ;
#57 = SHAPE_DEFINITION_REPRESENTATION ( #91, #120 ) ;
#58 = VERTEX_POINT ( 'NONE', #27 ) ;
#59 = CARTESIAN_POINT ( 'NONE',  ( 0.000000000000000000, 1200.000000000000000, 16.76000000000000156 ) ) ;
#60 = ORIENTED_EDGE ( 'NONE', *, *, #103, .T. ) ;
#61 = COLOUR_RGB ( '',0.7529411764705882248, 0.7529411764705882248, 0.7529411764705882248 ) ;
#62 = AXIS2_PLACEMENT_3D ( 'NONE', #65, #2, #55 ) ;
#63 = DIRECTION ( 'NONE',  ( 0.000000000000000000, 0.000000000000000000, -1.000000000000000000 ) ) ;
#64 = CARTESIAN_POINT ( 'NONE',  ( 0.000000000000000000, 0.000000000000000000, 16.76000000000000156 ) ) ;
#65 = CARTESIAN_POINT ( 'NONE',  ( 0.000000000000000000, 0.000000000000000000, 16.76000000000000156 ) ) ;
#66 = CARTESIAN_POINT ( 'NONE',  ( 0.000000000000000000, 1200.000000000000000, 0.000000000000000000 ) ) ;
#67 = CARTESIAN_POINT ( 'NONE',  ( 1100.000000000000000, 0.000000000000000000, 16.76000000000000156 ) ) ;
#68 = ADVANCED_FACE ( 'NONE', ( #134 ), #200, .F. ) ;
#69 = ORIENTED_EDGE ( 'NONE', *, *, #192, .F. ) ;
#70 = DIRECTION ( 'NONE',  ( 0.000000000000000000, -0.000000000000000000, -1.000000000000000000 ) ) ;
#71 = AXIS2_PLACEMENT_3D ( 'NONE', #132, #198, #70 ) ;
#72 = EDGE_LOOP ( 'NONE', ( #29, #28, #92, #150 ) ) ;
#73 = CARTESIAN_POINT ( 'NONE',  ( 0.000000000000000000, 0.000000000000000000, 0.000000000000000000 ) ) ;
#74 = AXIS2_PLACEMENT_3D ( 'NONE', #107, #97, #6 ) ;
#75 = EDGE_CURVE ( 'NONE', #172, #34, #175, .T. ) ;
#76 = MECHANICAL_DESIGN_GEOMETRIC_PRESENTATION_REPRESENTATION (  '', ( #174 ), #149 ) ;
#77 = LINE ( 'NONE', #40, #128 ) ;
#78 = CARTESIAN_POINT ( 'NONE',  ( 1100.000000000000000, 0.000000000000000000, 16.76000000000000156 ) ) ;
#79 = PRODUCT_DEFINITION_CONTEXT ( 'detailed design', #33, 'design' ) ;
#80 = FACE_OUTER_BOUND ( 'NONE', #101, .T. ) ;
#81 = VECTOR ( 'NONE', #84, 1000.000000000000000 ) ;
#82 = PLANE ( 'NONE',  #62 ) ;
#83 = CARTESIAN_POINT ( 'NONE',  ( 0.000000000000000000, 0.000000000000000000, 16.76000000000000156 ) ) ;
#84 = DIRECTION ( 'NONE',  ( 0.000000000000000000, 1.000000000000000000, 0.000000000000000000 ) ) ;
#85 =( NAMED_UNIT ( * ) SI_UNIT ( $, .STERADIAN. ) SOLID_ANGLE_UNIT ( ) );
#86 = EDGE_CURVE ( 'NONE', #170, #58, #196, .T. ) ;
#87 = ORIENTED_EDGE ( 'NONE', *, *, #15, .T. ) ;
#88 = DIRECTION ( 'NONE',  ( 0.000000000000000000, 0.000000000000000000, 1.000000000000000000 ) ) ;
#89 = ORIENTED_EDGE ( 'NONE', *, *, #50, .F. ) ;
#90 = DIRECTION ( 'NONE',  ( 0.000000000000000000, 1.000000000000000000, 0.000000000000000000 ) ) ;
#91 = PRODUCT_DEFINITION_SHAPE ( 'NONE', 'NONE',  #43 ) ;
#92 = ORIENTED_EDGE ( 'NONE', *, *, #103, .F. ) ;
#93 = PLANE ( 'NONE',  #138 ) ;
#94 = DIRECTION ( 'NONE',  ( 0.000000000000000000, 1.000000000000000000, 0.000000000000000000 ) ) ;
#95 = CARTESIAN_POINT ( 'NONE',  ( 1100.000000000000000, 0.000000000000000000, 16.76000000000000156 ) ) ;
#96 = VECTOR ( 'NONE', #155, 1000.000000000000000 ) ;
#97 = DIRECTION ( 'NONE',  ( 0.000000000000000000, 0.000000000000000000, -1.000000000000000000 ) ) ;
#98 = ORIENTED_EDGE ( 'NONE', *, *, #75, .T. ) ;
#99 = VERTEX_POINT ( 'NONE', #163 ) ;
#100 = EDGE_LOOP ( 'NONE', ( #186, #121, #18, #188 ) ) ;
#101 = EDGE_LOOP ( 'NONE', ( #98, #69, #12, #173 ) ) ;
#102 = FILL_AREA_STYLE ('',( #137 ) ) ;
#103 = EDGE_CURVE ( 'NONE', #162, #170, #165, .T. ) ;
#104 = LINE ( 'NONE', #158, #179 ) ;
#105 = VECTOR ( 'NONE', #115, 1000.000000000000000 ) ;
#106 = LINE ( 'NONE', #59, #126 ) ;
#107 = CARTESIAN_POINT ( 'NONE',  ( 0.000000000000000000, 0.000000000000000000, 0.000000000000000000 ) ) ;
#108 = UNCERTAINTY_MEASURE_WITH_UNIT (LENGTH_MEASURE( 1.000000000000000082E-05 ), #133, 'distance_accuracy_value', 'NONE');
#109 = DIRECTION ( 'NONE',  ( -1.000000000000000000, 0.000000000000000000, -0.000000000000000000 ) ) ;
#110 = ADVANCED_FACE ( 'NONE', ( #22 ), #93, .F. ) ;
#111 = DIRECTION ( 'NONE',  ( 0.000000000000000000, -0.000000000000000000, 1.000000000000000000 ) ) ;
#112 = DIRECTION ( 'NONE',  ( -0.000000000000000000, -0.000000000000000000, -1.000000000000000000 ) ) ;
#113 = VECTOR ( 'NONE', #112, 1000.000000000000000 ) ;
#114 =( NAMED_UNIT ( * ) PLANE_ANGLE_UNIT ( ) SI_UNIT ( $, .RADIAN. ) );
#115 = DIRECTION ( 'NONE',  ( -0.000000000000000000, -1.000000000000000000, -0.000000000000000000 ) ) ;
#116 = DIRECTION ( 'NONE',  ( 1.000000000000000000, 0.000000000000000000, 0.000000000000000000 ) ) ;
#117 = STYLED_ITEM ( 'NONE', ( #157 ), #39 ) ;
#118 = ORIENTED_EDGE ( 'NONE', *, *, #75, .F. ) ;
#119 = CARTESIAN_POINT ( 'NONE',  ( 1100.000000000000000, 0.000000000000000000, 16.76000000000000156 ) ) ;
#120 = ADVANCED_BREP_SHAPE_REPRESENTATION ( 'GS_16c76-120x110-VSG_ESG', ( #39, #24 ), #16 ) ;
#121 = ORIENTED_EDGE ( 'NONE', *, *, #184, .F. ) ;
#122 = SURFACE_STYLE_FILL_AREA ( #102 ) ;
#123 = EDGE_CURVE ( 'NONE', #99, #172, #54, .T. ) ;
#124 = CARTESIAN_POINT ( 'NONE',  ( 0.000000000000000000, 0.000000000000000000, 16.76000000000000156 ) ) ;
#125 = ORIENTED_EDGE ( 'NONE', *, *, #15, .F. ) ;
#126 = VECTOR ( 'NONE', #139, 1000.000000000000000 ) ;
#127 = LINE ( 'NONE', #159, #152 ) ;
#128 = VECTOR ( 'NONE', #146, 1000.000000000000000 ) ;
#129 = APPLICATION_PROTOCOL_DEFINITION ( 'draft international standard', 'automotive_design', 1998, #9 ) ;
#130 = PRODUCT ( 'GS_16c76-120x110-VSG_ESG', 'GS_16c76-120x110-VSG_ESG', '', ( #10 ) ) ;
#131 = CARTESIAN_POINT ( 'NONE',  ( 0.000000000000000000, 0.000000000000000000, 16.76000000000000156 ) ) ;
#132 = CARTESIAN_POINT ( 'NONE',  ( 0.000000000000000000, 1200.000000000000000, 16.76000000000000156 ) ) ;
#133 =( LENGTH_UNIT ( ) NAMED_UNIT ( * ) SI_UNIT ( .MILLI., .METRE. ) );
#134 = FACE_OUTER_BOUND ( 'NONE', #100, .T. ) ;
#135 = CARTESIAN_POINT ( 'NONE',  ( 1100.000000000000000, 1200.000000000000000, 16.76000000000000156 ) ) ;
#136 = ORIENTED_EDGE ( 'NONE', *, *, #184, .T. ) ;
#137 = FILL_AREA_STYLE_COLOUR ( '', #61 ) ;
#138 = AXIS2_PLACEMENT_3D ( 'NONE', #83, #94, #111 ) ;
#139 = DIRECTION ( 'NONE',  ( -1.000000000000000000, -0.000000000000000000, -0.000000000000000000 ) ) ;
#140 = ORIENTED_EDGE ( 'NONE', *, *, #123, .F. ) ;
#141 =( LENGTH_UNIT ( ) NAMED_UNIT ( * ) SI_UNIT ( .MILLI., .METRE. ) );
#142 = SURFACE_STYLE_FILL_AREA ( #52 ) ;
#143 = ADVANCED_FACE ( 'NONE', ( #80 ), #82, .F. ) ;
#144 = DIRECTION ( 'NONE',  ( -0.000000000000000000, -0.000000000000000000, -1.000000000000000000 ) ) ;
#145 = PLANE ( 'NONE',  #160 ) ;
#146 = DIRECTION ( 'NONE',  ( -0.000000000000000000, -0.000000000000000000, -1.000000000000000000 ) ) ;
#147 = LINE ( 'NONE', #36, #1 ) ;
#148 = FACE_OUTER_BOUND ( 'NONE', #178, .T. ) ;
#149 =( GEOMETRIC_REPRESENTATION_CONTEXT ( 3 ) GLOBAL_UNCERTAINTY_ASSIGNED_CONTEXT ( ( #108 ) ) GLOBAL_UNIT_ASSIGNED_CONTEXT ( ( #133, #114, #85 ) ) REPRESENTATION_CONTEXT ( 'NONE', 'WORKASPACE' ) );
#150 = ORIENTED_EDGE ( 'NONE', *, *, #192, .T. ) ;
#151 = EDGE_CURVE ( 'NONE', #34, #58, #147, .T. ) ;
#152 = VECTOR ( 'NONE', #90, 1000.000000000000000 ) ;
#153 = LINE ( 'NONE', #124, #96 ) ;
#154 = EDGE_LOOP ( 'NONE', ( #189, #60, #30, #87 ) ) ;
#155 = DIRECTION ( 'NONE',  ( -0.000000000000000000, -1.000000000000000000, -0.000000000000000000 ) ) ;
#156 = DIRECTION ( 'NONE',  ( 0.000000000000000000, 0.000000000000000000, 1.000000000000000000 ) ) ;
#157 = PRESENTATION_STYLE_ASSIGNMENT (( #177 ) ) ;
#158 = CARTESIAN_POINT ( 'NONE',  ( 0.000000000000000000, 1200.000000000000000, 16.76000000000000156 ) ) ;
#159 = CARTESIAN_POINT ( 'NONE',  ( 1100.000000000000000, 0.000000000000000000, 0.000000000000000000 ) ) ;
#160 = AXIS2_PLACEMENT_3D ( 'NONE', #167, #63, #109 ) ;
#161 = FILL_AREA_STYLE_COLOUR ( '', #199 ) ;
#162 = VERTEX_POINT ( 'NONE', #64 ) ;
#163 = CARTESIAN_POINT ( 'NONE',  ( 1100.000000000000000, 1200.000000000000000, 0.000000000000000000 ) ) ;
#164 = DIRECTION ( 'NONE',  ( 1.000000000000000000, 0.000000000000000000, 0.000000000000000000 ) ) ;
#165 = LINE ( 'NONE', #182, #45 ) ;
#166 = MECHANICAL_DESIGN_GEOMETRIC_PRESENTATION_REPRESENTATION (  '', ( #117 ), #183 ) ;
#167 = CARTESIAN_POINT ( 'NONE',  ( 0.000000000000000000, 0.000000000000000000, 16.76000000000000156 ) ) ;
#168 = LINE ( 'NONE', #67, #81 ) ;
#169 = VECTOR ( 'NONE', #49, 1000.000000000000000 ) ;
#170 = VERTEX_POINT ( 'NONE', #95 ) ;
#171 = PRODUCT_RELATED_PRODUCT_CATEGORY ( 'part', '', ( #130 ) ) ;
#172 = VERTEX_POINT ( 'NONE', #66 ) ;
#173 = ORIENTED_EDGE ( 'NONE', *, *, #50, .T. ) ;
#174 = STYLED_ITEM ( 'NONE', ( #41 ), #120 ) ;
#175 = LINE ( 'NONE', #73, #105 ) ;
#176 = EDGE_LOOP ( 'NONE', ( #118, #140, #42, #44 ) ) ;
#177 = SURFACE_STYLE_USAGE ( .BOTH. , #46 ) ;
#178 = EDGE_LOOP ( 'NONE', ( #26, #89, #125, #136 ) ) ;
#179 = VECTOR ( 'NONE', #17, 1000.000000000000000 ) ;
#180 = SURFACE_SIDE_STYLE ('',( #142 ) ) ;
#181 =( NAMED_UNIT ( * ) PLANE_ANGLE_UNIT ( ) SI_UNIT ( $, .RADIAN. ) );
#182 = CARTESIAN_POINT ( 'NONE',  ( 0.000000000000000000, 0.000000000000000000, 16.76000000000000156 ) ) ;
#183 =( GEOMETRIC_REPRESENTATION_CONTEXT ( 3 ) GLOBAL_UNCERTAINTY_ASSIGNED_CONTEXT ( ( #20 ) ) GLOBAL_UNIT_ASSIGNED_CONTEXT ( ( #141, #191, #32 ) ) REPRESENTATION_CONTEXT ( 'NONE', 'WORKASPACE' ) );
#184 = EDGE_CURVE ( 'NONE', #31, #99, #77, .T. ) ;
#185 = ADVANCED_FACE ( 'NONE', ( #35 ), #3, .T. ) ;
#186 = ORIENTED_EDGE ( 'NONE', *, *, #14, .T. ) ;
#187 = APPLICATION_PROTOCOL_DEFINITION ( 'draft international standard', 'automotive_design', 1998, #33 ) ;
#188 = ORIENTED_EDGE ( 'NONE', *, *, #86, .T. ) ;
#189 = ORIENTED_EDGE ( 'NONE', *, *, #37, .T. ) ;
#190 = PRESENTATION_LAYER_ASSIGNMENT (  '', '', ( #174 ) ) ;
#191 =( NAMED_UNIT ( * ) PLANE_ANGLE_UNIT ( ) SI_UNIT ( $, .RADIAN. ) );
#192 = EDGE_CURVE ( 'NONE', #162, #34, #21, .T. ) ;
#193 = CARTESIAN_POINT ( 'NONE',  ( 0.000000000000000000, 0.000000000000000000, 0.000000000000000000 ) ) ;
#194 = CARTESIAN_POINT ( 'NONE',  ( 0.000000000000000000, 1200.000000000000000, 16.76000000000000156 ) ) ;
#195 =( NAMED_UNIT ( * ) SI_UNIT ( $, .STERADIAN. ) SOLID_ANGLE_UNIT ( ) );
#196 = LINE ( 'NONE', #78, #48 ) ;
#197 = FACE_OUTER_BOUND ( 'NONE', #154, .T. ) ;
#198 = DIRECTION ( 'NONE',  ( 0.000000000000000000, -1.000000000000000000, 0.000000000000000000 ) ) ;
#199 = COLOUR_RGB ( '',0.7529411764705882248, 0.7529411764705882248, 0.7529411764705882248 ) ;
#200 = PLANE ( 'NONE',  #201 ) ;
#201 = AXIS2_PLACEMENT_3D ( 'NONE', #119, #47, #156 ) ;
#202 = ADVANCED_FACE ( 'NONE', ( #197 ), #145, .F. ) ;
ENDSEC;
END-ISO-10303-21;
