ISO-10303-21;
HEADER;
FILE_DESCRIPTION (( 'STEP AP203' ),
    '1' );
FILE_NAME ('GS-AL_ZP-2020_S-VA.STEP',
    '2019-04-02T08:48:40',
    ( '' ),
    ( '' ),
    'SwSTEP 2.0',
    'SolidWorks 2018',
    '' );
FILE_SCHEMA (( 'CONFIG_CONTROL_DESIGN' ));
ENDSEC;

DATA;
#1 = CARTESIAN_POINT ( 'NONE',  ( -1500.000000000000000, 0.0000000000000000000, 0.0000000000000000000 ) ) ;
#2 = ORIENTED_EDGE ( 'NONE', *, *, #136, .F. ) ;
#3 = EDGE_LOOP ( 'NONE', ( #198, #364, #280, #41, #7, #172, #114, #10 ) ) ;
#4 = DIRECTION ( 'NONE',  ( -1.000000000000000000, -0.0000000000000000000, -0.0000000000000000000 ) ) ;
#5 = FACE_OUTER_BOUND ( 'NONE', #100, .T. ) ;
#6 = VERTEX_POINT ( 'NONE', #188 ) ;
#7 = ORIENTED_EDGE ( 'NONE', *, *, #96, .F. ) ;
#8 = EDGE_CURVE ( 'NONE', #241, #26, #69, .T. ) ;
#9 = DIRECTION ( 'NONE',  ( 0.0000000000000000000, 1.355252715606880543E-16, -1.000000000000000000 ) ) ;
#10 = ORIENTED_EDGE ( 'NONE', *, *, #119, .F. ) ;
#11 = PERSON_AND_ORGANIZATION_ROLE ( 'classification_officer' ) ;
#12 = CARTESIAN_POINT ( 'NONE',  ( 1500.000000000000000, 20.00000000000000355, -7.999999999999998224 ) ) ;
#13 = CC_DESIGN_PERSON_AND_ORGANIZATION_ASSIGNMENT ( #47, #11, ( #182 ) ) ;
#14 = SHAPE_DEFINITION_REPRESENTATION ( #211, #116 ) ;
#15 = ORIENTED_EDGE ( 'NONE', *, *, #257, .T. ) ;
#16 = LINE ( 'NONE', #146, #289 ) ;
#17 = VECTOR ( 'NONE', #310, 1000.000000000000000 ) ;
#18 = EDGE_CURVE ( 'NONE', #154, #250, #95, .T. ) ;
#19 = CARTESIAN_POINT ( 'NONE',  ( 1500.000000000000000, 20.00000000000000000, -10.00000000000000355 ) ) ;
#20 = ORIENTED_EDGE ( 'NONE', *, *, #78, .T. ) ;
#21 = CARTESIAN_POINT ( 'NONE',  ( -1500.000000000000000, 20.00000000000000355, -7.999999999999998224 ) ) ;
#22 = LINE ( 'NONE', #248, #194 ) ;
#23 = EDGE_CURVE ( 'NONE', #94, #6, #275, .T. ) ;
#24 = CARTESIAN_POINT ( 'NONE',  ( 1500.000000000000000, 20.00000000000000355, -7.999999999999998224 ) ) ;
#25 = DIRECTION ( 'NONE',  ( 0.0000000000000000000, -1.734723475976802558E-15, -1.000000000000000000 ) ) ;
#26 = VERTEX_POINT ( 'NONE', #238 ) ;
#27 = LINE ( 'NONE', #129, #350 ) ;
#28 = ORIENTED_EDGE ( 'NONE', *, *, #55, .F. ) ;
#29 = DIRECTION ( 'NONE',  ( 0.0000000000000000000, 1.000000000000000000, 1.734723475976807094E-16 ) ) ;
#30 = ORIENTED_EDGE ( 'NONE', *, *, #273, .T. ) ;
#31 = VECTOR ( 'NONE', #52, 1000.000000000000000 ) ;
#32 = DIRECTION ( 'NONE',  ( 0.0000000000000000000, -1.000000000000000000, 1.734723475976807094E-16 ) ) ;
#33 = PERSON_AND_ORGANIZATION_ROLE ( 'creator' ) ;
#34 = EDGE_CURVE ( 'NONE', #335, #241, #337, .T. ) ;
#35 = COORDINATED_UNIVERSAL_TIME_OFFSET ( 1, 0, .AHEAD. ) ;
#36 = ORIENTED_EDGE ( 'NONE', *, *, #18, .T. ) ;
#37 = ORIENTED_EDGE ( 'NONE', *, *, #267, .F. ) ;
#38 = ADVANCED_FACE ( 'NONE', ( #91 ), #276, .F. ) ;
#39 = COORDINATED_UNIVERSAL_TIME_OFFSET ( 1, 0, .AHEAD. ) ;
#40 = EDGE_LOOP ( 'NONE', ( #264, #237, #192, #217 ) ) ;
#41 = ORIENTED_EDGE ( 'NONE', *, *, #293, .F. ) ;
#42 = APPROVAL_DATE_TIME ( #57, #62 ) ;
#43 = VERTEX_POINT ( 'NONE', #158 ) ;
#44 = LINE ( 'NONE', #287, #345 ) ;
#45 = CARTESIAN_POINT ( 'NONE',  ( -1500.000000000000000, 20.00000000000000000, 10.00000000000000355 ) ) ;
#46 = DIRECTION ( 'NONE',  ( -1.000000000000000000, -0.0000000000000000000, -0.0000000000000000000 ) ) ;
#47 = PERSON_AND_ORGANIZATION ( #323, #130 ) ;
#48 = PLANE ( 'NONE',  #329 ) ;
#49 = ORIENTED_EDGE ( 'NONE', *, *, #34, .T. ) ;
#50 = PRODUCT_DEFINITION ( 'UNKNOWN', '', #144, #334 ) ;
#51 = VECTOR ( 'NONE', #187, 1000.000000000000000 ) ;
#52 = DIRECTION ( 'NONE',  ( -1.000000000000000000, -0.0000000000000000000, -0.0000000000000000000 ) ) ;
#53 = CALENDAR_DATE ( 2019, 2, 4 ) ;
#54 = PLANE ( 'NONE',  #124 ) ;
#55 = EDGE_CURVE ( 'NONE', #241, #209, #22, .T. ) ;
#56 = DIRECTION ( 'NONE',  ( -0.0000000000000000000, 1.000000000000000000, -1.734723475976807094E-16 ) ) ;
#57 = DATE_AND_TIME ( #139, #105 ) ;
#58 = FACE_OUTER_BOUND ( 'NONE', #313, .T. ) ;
#59 = DIRECTION ( 'NONE',  ( -0.0000000000000000000, 1.734723475976807094E-16, 1.000000000000000000 ) ) ;
#60 =( LENGTH_UNIT ( ) NAMED_UNIT ( * ) SI_UNIT ( .MILLI., .METRE. ) );
#61 = DIRECTION ( 'NONE',  ( -0.0000000000000000000, 1.000000000000000000, 9.637352644315595243E-17 ) ) ;
#62 = APPROVAL ( #159, 'UNSPECIFIED' ) ;
#63 = LOCAL_TIME ( 10, 48, 40.00000000000000000, #93 ) ;
#64 =( NAMED_UNIT ( * ) PLANE_ANGLE_UNIT ( ) SI_UNIT ( $, .RADIAN. ) );
#65 = CARTESIAN_POINT ( 'NONE',  ( 1500.000000000000000, 20.00000000000000000, 10.00000000000000355 ) ) ;
#66 = DATE_AND_TIME ( #53, #191 ) ;
#67 = EDGE_LOOP ( 'NONE', ( #332, #107, #311, #36 ) ) ;
#68 = LINE ( 'NONE', #103, #147 ) ;
#69 = LINE ( 'NONE', #296, #51 ) ;
#70 = EDGE_CURVE ( 'NONE', #254, #320, #272, .T. ) ;
#71 = PERSON_AND_ORGANIZATION ( #323, #130 ) ;
#72 = FACE_OUTER_BOUND ( 'NONE', #108, .T. ) ;
#73 = AXIS2_PLACEMENT_3D ( 'NONE', #160, #249, #9 ) ;
#74 = CARTESIAN_POINT ( 'NONE',  ( -1500.000000000000000, 2.000000000000001776, 8.000000000000000000 ) ) ;
#75 = ORIENTED_EDGE ( 'NONE', *, *, #99, .T. ) ;
#76 = DIRECTION ( 'NONE',  ( 0.0000000000000000000, -1.000000000000000000, -9.637352644315595243E-17 ) ) ;
#77 = PLANE ( 'NONE',  #302 ) ;
#78 = EDGE_CURVE ( 'NONE', #316, #94, #102, .T. ) ;
#79 = CARTESIAN_POINT ( 'NONE',  ( 1500.000000000000000, 0.0000000000000000000, 10.00000000000000000 ) ) ;
#80 = EDGE_CURVE ( 'NONE', #274, #6, #251, .T. ) ;
#81 = ORIENTED_EDGE ( 'NONE', *, *, #119, .T. ) ;
#82 = CARTESIAN_POINT ( 'NONE',  ( -1500.000000000000000, 20.00000000000000355, -7.999999999999998224 ) ) ;
#83 = CARTESIAN_POINT ( 'NONE',  ( 1500.000000000000000, 20.00000000000000000, -10.00000000000000355 ) ) ;
#84 = ORIENTED_EDGE ( 'NONE', *, *, #228, .T. ) ;
#85 = APPROVAL_ROLE ( '' ) ;
#86 = LINE ( 'NONE', #213, #234 ) ;
#87 = DIRECTION ( 'NONE',  ( 0.0000000000000000000, 0.0000000000000000000, 1.000000000000000000 ) ) ;
#88 = AXIS2_PLACEMENT_3D ( 'NONE', #24, #366, #25 ) ;
#89 = DIRECTION ( 'NONE',  ( 1.000000000000000000, 0.0000000000000000000, 0.0000000000000000000 ) ) ;
#90 = ORIENTED_EDGE ( 'NONE', *, *, #8, .F. ) ;
#91 = FACE_OUTER_BOUND ( 'NONE', #67, .T. ) ;
#92 = ADVANCED_FACE ( 'NONE', ( #328 ), #312, .F. ) ;
#93 = COORDINATED_UNIVERSAL_TIME_OFFSET ( 1, 0, .AHEAD. ) ;
#94 = VERTEX_POINT ( 'NONE', #74 ) ;
#95 = LINE ( 'NONE', #126, #352 ) ;
#96 = EDGE_CURVE ( 'NONE', #320, #250, #325, .T. ) ;
#97 = ADVANCED_FACE ( 'NONE', ( #122 ), #48, .F. ) ;
#98 = PERSON_AND_ORGANIZATION_ROLE ( 'design_supplier' ) ;
#99 = EDGE_CURVE ( 'NONE', #43, #26, #295, .T. ) ;
#100 = EDGE_LOOP ( 'NONE', ( #260, #112, #161, #20 ) ) ;
#101 = FACE_OUTER_BOUND ( 'NONE', #40, .T. ) ;
#102 = LINE ( 'NONE', #166, #207 ) ;
#103 = CARTESIAN_POINT ( 'NONE',  ( -1500.000000000000000, 0.0000000000000000000, 10.00000000000000000 ) ) ;
#104 = DIRECTION ( 'NONE',  ( 0.0000000000000000000, 0.0000000000000000000, -1.000000000000000000 ) ) ;
#105 = LOCAL_TIME ( 10, 48, 40.00000000000000000, #39 ) ;
#106 = CC_DESIGN_PERSON_AND_ORGANIZATION_ASSIGNMENT ( #356, #98, ( #144 ) ) ;
#107 = ORIENTED_EDGE ( 'NONE', *, *, #78, .F. ) ;
#108 = EDGE_LOOP ( 'NONE', ( #30, #37, #151, #233 ) ) ;
#109 = CARTESIAN_POINT ( 'NONE',  ( 1500.000000000000000, 2.000000000000003997, -8.000000000000000000 ) ) ;
#110 = CARTESIAN_POINT ( 'NONE',  ( 1500.000000000000000, 20.00000000000000355, -7.999999999999998224 ) ) ;
#111 = DIRECTION ( 'NONE',  ( -1.000000000000000000, -0.0000000000000000000, -0.0000000000000000000 ) ) ;
#112 = ORIENTED_EDGE ( 'NONE', *, *, #80, .F. ) ;
#113 = EDGE_CURVE ( 'NONE', #209, #270, #322, .T. ) ;
#114 = ORIENTED_EDGE ( 'NONE', *, *, #273, .F. ) ;
#115 = AXIS2_PLACEMENT_3D ( 'NONE', #283, #137, #340 ) ;
#116 = ADVANCED_BREP_SHAPE_REPRESENTATION ( 'GS-AL_ZP-2020_S-VA', ( #255, #348 ), #355 ) ;
#117 = DIRECTION ( 'NONE',  ( -0.0000000000000000000, 1.734723475976802558E-15, 1.000000000000000000 ) ) ;
#118 = LOCAL_TIME ( 10, 48, 40.00000000000000000, #35 ) ;
#119 = EDGE_CURVE ( 'NONE', #26, #270, #68, .T. ) ;
#120 = CARTESIAN_POINT ( 'NONE',  ( -1500.000000000000000, 20.00000000000000355, -7.999999999999998224 ) ) ;
#121 = VECTOR ( 'NONE', #117, 1000.000000000000000 ) ;
#122 = FACE_OUTER_BOUND ( 'NONE', #131, .T. ) ;
#123 = APPLICATION_PROTOCOL_DEFINITION ( 'international standard', 'config_control_design', 1994, #152 ) ;
#124 = AXIS2_PLACEMENT_3D ( 'NONE', #231, #341, #290 ) ;
#125 = UNCERTAINTY_MEASURE_WITH_UNIT (LENGTH_MEASURE( 1.000000000000000082E-05 ), #60, 'distance_accuracy_value', 'NONE');
#126 = CARTESIAN_POINT ( 'NONE',  ( 1500.000000000000000, 2.000000000000003997, -8.000000000000000000 ) ) ;
#127 = APPLICATION_CONTEXT ( 'configuration controlled 3d designs of mechanical parts and assemblies' ) ;
#128 = ADVANCED_FACE ( 'NONE', ( #5 ), #77, .F. ) ;
#129 = CARTESIAN_POINT ( 'NONE',  ( -1500.000000000000000, 20.00000000000000000, 10.00000000000000355 ) ) ;
#130 = ORGANIZATION ( 'UNSPECIFIED', 'UNSPECIFIED', '' ) ;
#131 = EDGE_LOOP ( 'NONE', ( #81, #343, #28, #186 ) ) ;
#132 = VECTOR ( 'NONE', #175, 1000.000000000000000 ) ;
#133 = CC_DESIGN_DATE_AND_TIME_ASSIGNMENT ( #196, #199, ( #182 ) ) ;
#134 = ADVANCED_FACE ( 'NONE', ( #58 ), #143, .F. ) ;
#135 = ORIENTED_EDGE ( 'NONE', *, *, #34, .F. ) ;
#136 = EDGE_CURVE ( 'NONE', #254, #154, #321, .T. ) ;
#137 = DIRECTION ( 'NONE',  ( 0.0000000000000000000, -1.000000000000000000, 0.0000000000000000000 ) ) ;
#138 = CC_DESIGN_PERSON_AND_ORGANIZATION_ASSIGNMENT ( #71, #33, ( #50 ) ) ;
#139 = CALENDAR_DATE ( 2019, 2, 4 ) ;
#140 = DIRECTION ( 'NONE',  ( -0.0000000000000000000, 1.000000000000000000, 0.0000000000000000000 ) ) ;
#141 = VERTEX_POINT ( 'NONE', #19 ) ;
#142 = VECTOR ( 'NONE', #318, 1000.000000000000000 ) ;
#143 = PLANE ( 'NONE',  #197 ) ;
#144 = PRODUCT_DEFINITION_FORMATION_WITH_SPECIFIED_SOURCE ( 'ANY', '', #184, .NOT_KNOWN. ) ;
#145 = APPROVAL_PERSON_ORGANIZATION ( #178, #205, #278 ) ;
#146 = CARTESIAN_POINT ( 'NONE',  ( 1500.000000000000000, 20.00000000000000000, 10.00000000000000355 ) ) ;
#147 = VECTOR ( 'NONE', #104, 1000.000000000000000 ) ;
#148 = CARTESIAN_POINT ( 'NONE',  ( -1500.000000000000000, 20.00000000000000000, -10.00000000000000355 ) ) ;
#149 = PERSON_AND_ORGANIZATION ( #323, #130 ) ;
#150 = CARTESIAN_POINT ( 'NONE',  ( 1500.000000000000000, 20.00000000000000355, -7.999999999999998224 ) ) ;
#151 = ORIENTED_EDGE ( 'NONE', *, *, #153, .F. ) ;
#152 = APPLICATION_CONTEXT ( 'configuration controlled 3d designs of mechanical parts and assemblies' ) ;
#153 = EDGE_CURVE ( 'NONE', #209, #141, #282, .T. ) ;
#154 = VERTEX_POINT ( 'NONE', #109 ) ;
#155 = CARTESIAN_POINT ( 'NONE',  ( 1500.000000000000000, 20.00000000000000000, 10.00000000000000355 ) ) ;
#156 = ORIENTED_EDGE ( 'NONE', *, *, #80, .T. ) ;
#157 = VECTOR ( 'NONE', #363, 1000.000000000000000 ) ;
#158 = CARTESIAN_POINT ( 'NONE',  ( -1500.000000000000000, 20.00000000000000000, 10.00000000000000355 ) ) ;
#159 = APPROVAL_STATUS ( 'not_yet_approved' ) ;
#160 = CARTESIAN_POINT ( 'NONE',  ( 1500.000000000000000, 2.000000000000001776, 8.000000000000000000 ) ) ;
#161 = ORIENTED_EDGE ( 'NONE', *, *, #226, .F. ) ;
#162 = ORIENTED_EDGE ( 'NONE', *, *, #246, .T. ) ;
#163 = CC_DESIGN_DATE_AND_TIME_ASSIGNMENT ( #369, #245, ( #50 ) ) ;
#164 = ADVANCED_FACE ( 'NONE', ( #101 ), #344, .F. ) ;
#165 = CC_DESIGN_APPROVAL ( #214, ( #144 ) ) ;
#166 = CARTESIAN_POINT ( 'NONE',  ( 1500.000000000000000, 2.000000000000001776, 8.000000000000000000 ) ) ;
#167 = VECTOR ( 'NONE', #76, 1000.000000000000000 ) ;
#168 = DIRECTION ( 'NONE',  ( -1.000000000000000000, -0.0000000000000000000, -0.0000000000000000000 ) ) ;
#169 = CARTESIAN_POINT ( 'NONE',  ( 1500.000000000000000, 20.00000000000000000, 8.000000000000001776 ) ) ;
#170 = PRODUCT_RELATED_PRODUCT_CATEGORY ( 'detail', '', ( #184 ) ) ;
#171 = DIRECTION ( 'NONE',  ( 0.0000000000000000000, -0.0000000000000000000, 1.000000000000000000 ) ) ;
#172 = ORIENTED_EDGE ( 'NONE', *, *, #220, .F. ) ;
#173 = ORIENTED_EDGE ( 'NONE', *, *, #18, .F. ) ;
#174 = VECTOR ( 'NONE', #244, 1000.000000000000000 ) ;
#175 = DIRECTION ( 'NONE',  ( -0.0000000000000000000, 1.000000000000000000, -1.734723475976807094E-16 ) ) ;
#176 = CARTESIAN_POINT ( 'NONE',  ( 1500.000000000000000, 0.0000000000000000000, 10.00000000000000000 ) ) ;
#177 = AXIS2_PLACEMENT_3D ( 'NONE', #218, #351, #29 ) ;
#178 = PERSON_AND_ORGANIZATION ( #323, #130 ) ;
#179 = ORIENTED_EDGE ( 'NONE', *, *, #324, .T. ) ;
#180 = DIRECTION ( 'NONE',  ( -0.0000000000000000000, -1.355252715606880543E-16, 1.000000000000000000 ) ) ;
#181 = LINE ( 'NONE', #83, #202 ) ;
#182 = SECURITY_CLASSIFICATION ( '', '', #357 ) ;
#183 = PLANE ( 'NONE',  #177 ) ;
#184 = PRODUCT ( 'GS-AL_ZP-2020_S-VA', 'GS-AL_ZP-2020_S-VA', '', ( #269 ) ) ;
#185 = DIRECTION ( 'NONE',  ( -0.0000000000000000000, -1.355252715606880543E-16, 1.000000000000000000 ) ) ;
#186 = ORIENTED_EDGE ( 'NONE', *, *, #8, .T. ) ;
#187 = DIRECTION ( 'NONE',  ( -1.000000000000000000, -0.0000000000000000000, -0.0000000000000000000 ) ) ;
#188 = CARTESIAN_POINT ( 'NONE',  ( -1500.000000000000000, 20.00000000000000000, 8.000000000000001776 ) ) ;
#189 = CC_DESIGN_PERSON_AND_ORGANIZATION_ASSIGNMENT ( #219, #330, ( #144 ) ) ;
#190 = DIRECTION ( 'NONE',  ( -1.000000000000000000, -0.0000000000000000000, -0.0000000000000000000 ) ) ;
#191 = LOCAL_TIME ( 10, 48, 40.00000000000000000, #259 ) ;
#192 = ORIENTED_EDGE ( 'NONE', *, *, #228, .F. ) ;
#193 = VECTOR ( 'NONE', #56, 1000.000000000000000 ) ;
#194 = VECTOR ( 'NONE', #277, 1000.000000000000000 ) ;
#195 = APPROVAL_ROLE ( '' ) ;
#196 = DATE_AND_TIME ( #262, #326 ) ;
#197 = AXIS2_PLACEMENT_3D ( 'NONE', #285, #253, #315 ) ;
#198 = ORIENTED_EDGE ( 'NONE', *, *, #99, .F. ) ;
#199 = DATE_TIME_ROLE ( 'classification_date' ) ;
#200 = CALENDAR_DATE ( 2019, 2, 4 ) ;
#201 = ORIENTED_EDGE ( 'NONE', *, *, #96, .T. ) ;
#202 = VECTOR ( 'NONE', #111, 1000.000000000000000 ) ;
#203 = DIRECTION ( 'NONE',  ( 0.0000000000000000000, -1.000000000000000000, -1.734723475976807094E-16 ) ) ;
#204 = DIRECTION ( 'NONE',  ( 0.0000000000000000000, -1.000000000000000000, -9.637352644315595243E-17 ) ) ;
#205 = APPROVAL ( #307, 'UNSPECIFIED' ) ;
#206 = PERSON_AND_ORGANIZATION ( #323, #130 ) ;
#207 = VECTOR ( 'NONE', #168, 1000.000000000000000 ) ;
#208 = CARTESIAN_POINT ( 'NONE',  ( 1500.000000000000000, 20.00000000000000355, -7.999999999999998224 ) ) ;
#209 = VERTEX_POINT ( 'NONE', #292 ) ;
#210 = FACE_OUTER_BOUND ( 'NONE', #339, .T. ) ;
#211 = PRODUCT_DEFINITION_SHAPE ( 'NONE', 'NONE',  #50 ) ;
#212 = APPROVAL_DATE_TIME ( #66, #214 ) ;
#213 = CARTESIAN_POINT ( 'NONE',  ( -1500.000000000000000, 2.000000000000001776, 8.000000000000000000 ) ) ;
#214 = APPROVAL ( #360, 'UNSPECIFIED' ) ;
#215 = CARTESIAN_POINT ( 'NONE',  ( 1500.000000000000000, 20.00000000000000000, -10.00000000000000355 ) ) ;
#216 = APPROVAL_DATE_TIME ( #279, #205 ) ;
#217 = ORIENTED_EDGE ( 'NONE', *, *, #267, .T. ) ;
#218 = CARTESIAN_POINT ( 'NONE',  ( 1500.000000000000000, 20.00000000000000000, 10.00000000000000355 ) ) ;
#219 = PERSON_AND_ORGANIZATION ( #323, #130 ) ;
#220 = EDGE_CURVE ( 'NONE', #225, #320, #294, .T. ) ;
#221 = EDGE_LOOP ( 'NONE', ( #179, #227, #243, #156 ) ) ;
#222 = FACE_OUTER_BOUND ( 'NONE', #361, .T. ) ;
#223 = VECTOR ( 'NONE', #203, 1000.000000000000000 ) ;
#224 = ADVANCED_FACE ( 'NONE', ( #210 ), #54, .T. ) ;
#225 = VERTEX_POINT ( 'NONE', #148 ) ;
#226 = EDGE_CURVE ( 'NONE', #316, #274, #301, .T. ) ;
#227 = ORIENTED_EDGE ( 'NONE', *, *, #319, .F. ) ;
#228 = EDGE_CURVE ( 'NONE', #141, #254, #308, .T. ) ;
#229 = CARTESIAN_POINT ( 'NONE',  ( 1500.000000000000000, 20.00000000000000000, 8.000000000000001776 ) ) ;
#230 = VECTOR ( 'NONE', #317, 1000.000000000000000 ) ;
#231 = CARTESIAN_POINT ( 'NONE',  ( 1500.000000000000000, 0.0000000000000000000, 0.0000000000000000000 ) ) ;
#232 = CARTESIAN_POINT ( 'NONE',  ( -1500.000000000000000, 20.00000000000000000, -10.00000000000000355 ) ) ;
#233 = ORIENTED_EDGE ( 'NONE', *, *, #113, .T. ) ;
#234 = VECTOR ( 'NONE', #185, 1000.000000000000000 ) ;
#235 = VECTOR ( 'NONE', #61, 1000.000000000000000 ) ;
#236 = CC_DESIGN_APPROVAL ( #205, ( #182 ) ) ;
#237 = ORIENTED_EDGE ( 'NONE', *, *, #70, .F. ) ;
#238 = CARTESIAN_POINT ( 'NONE',  ( -1500.000000000000000, 0.0000000000000000000, 10.00000000000000000 ) ) ;
#239 =( NAMED_UNIT ( * ) SI_UNIT ( $, .STERADIAN. ) SOLID_ANGLE_UNIT ( ) );
#240 = APPLICATION_PROTOCOL_DEFINITION ( 'international standard', 'config_control_design', 1994, #127 ) ;
#241 = VERTEX_POINT ( 'NONE', #176 ) ;
#242 = LINE ( 'NONE', #232, #193 ) ;
#243 = ORIENTED_EDGE ( 'NONE', *, *, #257, .F. ) ;
#244 = DIRECTION ( 'NONE',  ( 0.0000000000000000000, -1.000000000000000000, -1.734723475976807094E-16 ) ) ;
#245 = DATE_TIME_ROLE ( 'creation_date' ) ;
#246 = EDGE_CURVE ( 'NONE', #154, #316, #44, .T. ) ;
#247 = VECTOR ( 'NONE', #46, 1000.000000000000000 ) ;
#248 = CARTESIAN_POINT ( 'NONE',  ( 1500.000000000000000, 0.0000000000000000000, 10.00000000000000000 ) ) ;
#249 = DIRECTION ( 'NONE',  ( 0.0000000000000000000, -1.000000000000000000, -1.355252715606880543E-16 ) ) ;
#250 = VERTEX_POINT ( 'NONE', #342 ) ;
#251 = LINE ( 'NONE', #169, #31 ) ;
#252 = CC_DESIGN_SECURITY_CLASSIFICATION ( #182, ( #144 ) ) ;
#253 = DIRECTION ( 'NONE',  ( 0.0000000000000000000, 9.637352644315595243E-17, -1.000000000000000000 ) ) ;
#254 = VERTEX_POINT ( 'NONE', #110 ) ;
#255 = MANIFOLD_SOLID_BREP ( 'Extrude1', #281 ) ;
#256 = CARTESIAN_POINT ( 'NONE',  ( 1500.000000000000000, 20.00000000000000000, 8.000000000000001776 ) ) ;
#257 = EDGE_CURVE ( 'NONE', #274, #335, #16, .T. ) ;
#258 = DIRECTION ( 'NONE',  ( -0.0000000000000000000, -0.0000000000000000000, 1.000000000000000000 ) ) ;
#259 = COORDINATED_UNIVERSAL_TIME_OFFSET ( 1, 0, .AHEAD. ) ;
#260 = ORIENTED_EDGE ( 'NONE', *, *, #23, .T. ) ;
#261 = VECTOR ( 'NONE', #4, 1000.000000000000000 ) ;
#262 = CALENDAR_DATE ( 2019, 2, 4 ) ;
#263 = CARTESIAN_POINT ( 'NONE',  ( 0.0000000000000000000, 0.0000000000000000000, 0.0000000000000000000 ) ) ;
#264 = ORIENTED_EDGE ( 'NONE', *, *, #220, .T. ) ;
#265 = ORIENTED_EDGE ( 'NONE', *, *, #319, .T. ) ;
#266 = PLANE ( 'NONE',  #358 ) ;
#267 = EDGE_CURVE ( 'NONE', #141, #225, #181, .T. ) ;
#268 = DIRECTION ( 'NONE',  ( 1.000000000000000000, 0.0000000000000000000, 0.0000000000000000000 ) ) ;
#269 = MECHANICAL_CONTEXT ( 'NONE', #152, 'mechanical' ) ;
#270 = VERTEX_POINT ( 'NONE', #346 ) ;
#271 = ORIENTED_EDGE ( 'NONE', *, *, #153, .T. ) ;
#272 = LINE ( 'NONE', #12, #17 ) ;
#273 = EDGE_CURVE ( 'NONE', #270, #225, #242, .T. ) ;
#274 = VERTEX_POINT ( 'NONE', #368 ) ;
#275 = LINE ( 'NONE', #303, #235 ) ;
#276 = PLANE ( 'NONE',  #73 ) ;
#277 = DIRECTION ( 'NONE',  ( 0.0000000000000000000, 0.0000000000000000000, -1.000000000000000000 ) ) ;
#278 = APPROVAL_ROLE ( '' ) ;
#279 = DATE_AND_TIME ( #359, #63 ) ;
#280 = ORIENTED_EDGE ( 'NONE', *, *, #23, .F. ) ;
#281 = CLOSED_SHELL ( 'NONE', ( #304, #97, #331, #164, #134, #38, #128, #92, #224, #309 ) ) ;
#282 = LINE ( 'NONE', #338, #132 ) ;
#283 = CARTESIAN_POINT ( 'NONE',  ( 1500.000000000000000, 20.00000000000000000, 10.00000000000000355 ) ) ;
#284 = FACE_OUTER_BOUND ( 'NONE', #3, .T. ) ;
#285 = CARTESIAN_POINT ( 'NONE',  ( 1500.000000000000000, 20.00000000000000355, -7.999999999999998224 ) ) ;
#286 = CARTESIAN_POINT ( 'NONE',  ( 1500.000000000000000, 0.0000000000000000000, -10.00000000000000000 ) ) ;
#287 = CARTESIAN_POINT ( 'NONE',  ( 1500.000000000000000, 2.000000000000001776, 8.000000000000000000 ) ) ;
#288 = ORIENTED_EDGE ( 'NONE', *, *, #70, .T. ) ;
#289 = VECTOR ( 'NONE', #258, 1000.000000000000000 ) ;
#290 = DIRECTION ( 'NONE',  ( 0.0000000000000000000, 0.0000000000000000000, -1.000000000000000000 ) ) ;
#291 = APPROVAL_PERSON_ORGANIZATION ( #206, #62, #195 ) ;
#292 = CARTESIAN_POINT ( 'NONE',  ( 1500.000000000000000, 0.0000000000000000000, -10.00000000000000000 ) ) ;
#293 = EDGE_CURVE ( 'NONE', #250, #94, #86, .T. ) ;
#294 = LINE ( 'NONE', #82, #121 ) ;
#295 = LINE ( 'NONE', #45, #223 ) ;
#296 = CARTESIAN_POINT ( 'NONE',  ( 1500.000000000000000, 0.0000000000000000000, 10.00000000000000000 ) ) ;
#297 = DIRECTION ( 'NONE',  ( -0.0000000000000000000, -0.0000000000000000000, 1.000000000000000000 ) ) ;
#298 = PLANE ( 'NONE',  #333 ) ;
#299 = CARTESIAN_POINT ( 'NONE',  ( 1500.000000000000000, 20.00000000000000000, 10.00000000000000355 ) ) ;
#300 = PERSON_AND_ORGANIZATION_ROLE ( 'design_owner' ) ;
#301 = LINE ( 'NONE', #256, #142 ) ;
#302 = AXIS2_PLACEMENT_3D ( 'NONE', #229, #314, #204 ) ;
#303 = CARTESIAN_POINT ( 'NONE',  ( -1500.000000000000000, 20.00000000000000000, 8.000000000000001776 ) ) ;
#304 = ADVANCED_FACE ( 'NONE', ( #222 ), #183, .F. ) ;
#305 = PERSON_AND_ORGANIZATION ( #323, #130 ) ;
#306 = CC_DESIGN_PERSON_AND_ORGANIZATION_ASSIGNMENT ( #305, #300, ( #184 ) ) ;
#307 = APPROVAL_STATUS ( 'not_yet_approved' ) ;
#308 = LINE ( 'NONE', #150, #157 ) ;
#309 = ADVANCED_FACE ( 'NONE', ( #284 ), #266, .F. ) ;
#310 = DIRECTION ( 'NONE',  ( -1.000000000000000000, -0.0000000000000000000, -0.0000000000000000000 ) ) ;
#311 = ORIENTED_EDGE ( 'NONE', *, *, #246, .F. ) ;
#312 = PLANE ( 'NONE',  #115 ) ;
#313 = EDGE_LOOP ( 'NONE', ( #201, #173, #2, #288 ) ) ;
#314 = DIRECTION ( 'NONE',  ( 0.0000000000000000000, -9.637352644315595243E-17, 1.000000000000000000 ) ) ;
#315 = DIRECTION ( 'NONE',  ( 0.0000000000000000000, 1.000000000000000000, 9.637352644315595243E-17 ) ) ;
#316 = VERTEX_POINT ( 'NONE', #353 ) ;
#317 = DIRECTION ( 'NONE',  ( 0.0000000000000000000, -1.000000000000000000, -9.637352644315595243E-17 ) ) ;
#318 = DIRECTION ( 'NONE',  ( -0.0000000000000000000, 1.000000000000000000, 9.637352644315595243E-17 ) ) ;
#319 = EDGE_CURVE ( 'NONE', #335, #43, #336, .T. ) ;
#320 = VERTEX_POINT ( 'NONE', #120 ) ;
#321 = LINE ( 'NONE', #208, #230 ) ;
#322 = LINE ( 'NONE', #286, #247 ) ;
#323 = PERSON ( 'UNSPECIFIED', 'UNSPECIFIED', 'UNSPECIFIED', ('UNSPECIFIED'), ('UNSPECIFIED'), ('UNSPECIFIED') ) ;
#324 = EDGE_CURVE ( 'NONE', #6, #43, #27, .T. ) ;
#325 = LINE ( 'NONE', #21, #167 ) ;
#326 = LOCAL_TIME ( 10, 48, 40.00000000000000000, #347 ) ;
#327 = ORIENTED_EDGE ( 'NONE', *, *, #136, .T. ) ;
#328 = FACE_OUTER_BOUND ( 'NONE', #221, .T. ) ;
#329 = AXIS2_PLACEMENT_3D ( 'NONE', #79, #140, #171 ) ;
#330 = PERSON_AND_ORGANIZATION_ROLE ( 'creator' ) ;
#331 = ADVANCED_FACE ( 'NONE', ( #72 ), #298, .F. ) ;
#332 = ORIENTED_EDGE ( 'NONE', *, *, #293, .T. ) ;
#333 = AXIS2_PLACEMENT_3D ( 'NONE', #215, #59, #32 ) ;
#334 = DESIGN_CONTEXT ( 'detailed design', #127, 'design' ) ;
#335 = VERTEX_POINT ( 'NONE', #155 ) ;
#336 = LINE ( 'NONE', #65, #261 ) ;
#337 = LINE ( 'NONE', #299, #174 ) ;
#338 = CARTESIAN_POINT ( 'NONE',  ( 1500.000000000000000, 20.00000000000000000, -10.00000000000000355 ) ) ;
#339 = EDGE_LOOP ( 'NONE', ( #49, #365, #271, #84, #327, #162, #349, #15 ) ) ;
#340 = DIRECTION ( 'NONE',  ( 0.0000000000000000000, -0.0000000000000000000, -1.000000000000000000 ) ) ;
#341 = DIRECTION ( 'NONE',  ( 1.000000000000000000, 0.0000000000000000000, 0.0000000000000000000 ) ) ;
#342 = CARTESIAN_POINT ( 'NONE',  ( -1500.000000000000000, 2.000000000000003997, -8.000000000000000000 ) ) ;
#343 = ORIENTED_EDGE ( 'NONE', *, *, #113, .F. ) ;
#344 = PLANE ( 'NONE',  #88 ) ;
#345 = VECTOR ( 'NONE', #180, 1000.000000000000000 ) ;
#346 = CARTESIAN_POINT ( 'NONE',  ( -1500.000000000000000, 0.0000000000000000000, -10.00000000000000000 ) ) ;
#347 = COORDINATED_UNIVERSAL_TIME_OFFSET ( 1, 0, .AHEAD. ) ;
#348 = AXIS2_PLACEMENT_3D ( 'NONE', #263, #87, #268 ) ;
#349 = ORIENTED_EDGE ( 'NONE', *, *, #226, .T. ) ;
#350 = VECTOR ( 'NONE', #297, 1000.000000000000000 ) ;
#351 = DIRECTION ( 'NONE',  ( 0.0000000000000000000, 1.734723475976807094E-16, -1.000000000000000000 ) ) ;
#352 = VECTOR ( 'NONE', #190, 1000.000000000000000 ) ;
#353 = CARTESIAN_POINT ( 'NONE',  ( 1500.000000000000000, 2.000000000000001776, 8.000000000000000000 ) ) ;
#354 = DIRECTION ( 'NONE',  ( 0.0000000000000000000, 0.0000000000000000000, -1.000000000000000000 ) ) ;
#355 =( GEOMETRIC_REPRESENTATION_CONTEXT ( 3 ) GLOBAL_UNCERTAINTY_ASSIGNED_CONTEXT ( ( #125 ) ) GLOBAL_UNIT_ASSIGNED_CONTEXT ( ( #60, #64, #239 ) ) REPRESENTATION_CONTEXT ( 'NONE', 'WORKASPACE' ) );
#356 = PERSON_AND_ORGANIZATION ( #323, #130 ) ;
#357 = SECURITY_CLASSIFICATION_LEVEL ( 'unclassified' ) ;
#358 = AXIS2_PLACEMENT_3D ( 'NONE', #1, #89, #354 ) ;
#359 = CALENDAR_DATE ( 2019, 2, 4 ) ;
#360 = APPROVAL_STATUS ( 'not_yet_approved' ) ;
#361 = EDGE_LOOP ( 'NONE', ( #75, #90, #135, #265 ) ) ;
#362 = APPROVAL_PERSON_ORGANIZATION ( #149, #214, #85 ) ;
#363 = DIRECTION ( 'NONE',  ( -0.0000000000000000000, 1.734723475976802558E-15, 1.000000000000000000 ) ) ;
#364 = ORIENTED_EDGE ( 'NONE', *, *, #324, .F. ) ;
#365 = ORIENTED_EDGE ( 'NONE', *, *, #55, .T. ) ;
#366 = DIRECTION ( 'NONE',  ( 0.0000000000000000000, -1.000000000000000000, 1.734723475976802558E-15 ) ) ;
#367 = CC_DESIGN_APPROVAL ( #62, ( #50 ) ) ;
#368 = CARTESIAN_POINT ( 'NONE',  ( 1500.000000000000000, 20.00000000000000000, 8.000000000000001776 ) ) ;
#369 = DATE_AND_TIME ( #200, #118 ) ;
ENDSEC;
END-ISO-10303-21;
