ISO-10303-21;
HEADER;
FILE_DESCRIPTION (( 'STEP AP203' ),
    '1' );
FILE_NAME ('A_1732-100.STEP',
    '2023-05-25T09:41:02',
    ( '' ),
    ( '' ),
    'SwSTEP 2.0',
    'SolidWorks 2019',
    '' );
FILE_SCHEMA (( 'CONFIG_CONTROL_DESIGN' ));
ENDSEC;

DATA;
#1 = CIRCLE ( 'NONE', #131, 49.50000000000000000 ) ;
#2 = PERSON_AND_ORGANIZATION ( #45, #219 ) ;
#3 = CC_DESIGN_SECURITY_CLASSIFICATION ( #26, ( #143 ) ) ;
#4 = AXIS2_PLACEMENT_3D ( 'NONE', #28, #220, #170 ) ;
#5 =( GEOMETRIC_REPRESENTATION_CONTEXT ( 3 ) GLOBAL_UNCERTAINTY_ASSIGNED_CONTEXT ( ( #31 ) ) GLOBAL_UNIT_ASSIGNED_CONTEXT ( ( #172, #223, #80 ) ) REPRESENTATION_CONTEXT ( 'NONE', 'WORKASPACE' ) );
#6 = EDGE_LOOP ( 'NONE', ( #70, #69, #88, #127 ) ) ;
#7 = EDGE_CURVE ( 'NONE', #213, #21, #167, .T. ) ;
#8 = EDGE_CURVE ( 'NONE', #146, #147, #72, .T. ) ;
#9 = AXIS2_PLACEMENT_3D ( 'NONE', #133, #208, #205 ) ;
#10 = DIRECTION ( 'NONE',  ( 1.000000000000000000, 0.000000000000000000, 0.000000000000000000 ) ) ;
#11 = CARTESIAN_POINT ( 'NONE',  ( 0.000000000000000000, 0.000000000000000000, 4.000000000000000000 ) ) ;
#12 = DIRECTION ( 'NONE',  ( -1.000000000000000000, 0.000000000000000000, 0.000000000000000000 ) ) ;
#13 = AXIS2_PLACEMENT_3D ( 'NONE', #222, #173, #138 ) ;
#14 = FACE_OUTER_BOUND ( 'NONE', #94, .T. ) ;
#15 = CC_DESIGN_APPROVAL ( #157, ( #24 ) ) ;
#16 = CARTESIAN_POINT ( 'NONE',  ( 0.000000000000000000, 0.000000000000000000, 4.000000000000000000 ) ) ;
#17 = COORDINATED_UNIVERSAL_TIME_OFFSET ( 1, 0, .AHEAD. ) ;
#18 = CARTESIAN_POINT ( 'NONE',  ( 0.000000000000000000, 0.000000000000000000, 4.000000000000000000 ) ) ;
#19 = APPROVAL_DATE_TIME ( #195, #158 ) ;
#20 = CALENDAR_DATE ( 2023, 25, 5 ) ;
#21 = VERTEX_POINT ( 'NONE', #136 ) ;
#22 = CIRCLE ( 'NONE', #9, 50.00000000000000000 ) ;
#23 = ORIENTED_EDGE ( 'NONE', *, *, #39, .T. ) ;
#24 = PRODUCT_DEFINITION ( 'NEZNÁMÝ', '', #143, #111 ) ;
#25 = CARTESIAN_POINT ( 'NONE',  ( -50.00000000000000000, 0.000000000000000000, 3.500000000000020428 ) ) ;
#26 = SECURITY_CLASSIFICATION ( '', '', #192 ) ;
#27 = ORIENTED_EDGE ( 'NONE', *, *, #207, .T. ) ;
#28 = CARTESIAN_POINT ( 'NONE',  ( 0.000000000000000000, 0.000000000000000000, 4.000000000000000000 ) ) ;
#29 = LINE ( 'NONE', #116, #218 ) ;
#30 = CARTESIAN_POINT ( 'NONE',  ( 50.00000000000000000, 6.123233995736766085E-15, 0.000000000000000000 ) ) ;
#31 = UNCERTAINTY_MEASURE_WITH_UNIT (LENGTH_MEASURE( 1.000000000000000082E-05 ), #172, 'distance_accuracy_value', 'NONE');
#32 = DIRECTION ( 'NONE',  ( 1.000000000000000000, 0.000000000000000000, 0.000000000000000000 ) ) ;
#33 = EDGE_CURVE ( 'NONE', #89, #21, #22, .T. ) ;
#34 = APPLICATION_PROTOCOL_DEFINITION ( 'international standard', 'config_control_design', 1994, #48 ) ;
#35 = PERSON_AND_ORGANIZATION_ROLE ( 'classification_officer' ) ;
#36 = ORIENTED_EDGE ( 'NONE', *, *, #39, .F. ) ;
#37 = ORIENTED_EDGE ( 'NONE', *, *, #198, .F. ) ;
#38 = EDGE_CURVE ( 'NONE', #89, #147, #29, .T. ) ;
#39 = EDGE_CURVE ( 'NONE', #137, #89, #92, .T. ) ;
#40 = FACE_OUTER_BOUND ( 'NONE', #108, .T. ) ;
#41 = DIRECTION ( 'NONE',  ( -0.000000000000000000, -0.000000000000000000, -1.000000000000000000 ) ) ;
#42 = CARTESIAN_POINT ( 'NONE',  ( 0.000000000000000000, 0.000000000000000000, 0.000000000000000000 ) ) ;
#43 = CYLINDRICAL_SURFACE ( 'NONE', #71, 50.00000000000000000 ) ;
#44 = DIRECTION ( 'NONE',  ( -1.000000000000000000, 0.000000000000000000, 0.000000000000000000 ) ) ;
#45 = PERSON ( 'NEURÈENÝ', 'NEURÈENÝ', 'NEURÈENÝ', ('NEURÈENÝ'), ('NEURÈENÝ'), ('NEURÈENÝ') ) ;
#46 = DIRECTION ( 'NONE',  ( 0.000000000000000000, 0.000000000000000000, 1.000000000000000000 ) ) ;
#47 = DIRECTION ( 'NONE',  ( 1.000000000000000000, 0.000000000000000000, 0.000000000000000000 ) ) ;
#48 = APPLICATION_CONTEXT ( 'configuration controlled 3d designs of mechanical parts and assemblies' ) ;
#49 = APPROVAL_STATUS ( 'not_yet_approved' ) ;
#50 = PERSON_AND_ORGANIZATION ( #45, #219 ) ;
#51 = DATE_AND_TIME ( #54, #82 ) ;
#52 = AXIS2_PLACEMENT_3D ( 'NONE', #16, #168, #12 ) ;
#53 = LOCAL_TIME ( 11, 41, 2.000000000000000000, #175 ) ;
#54 = CALENDAR_DATE ( 2023, 25, 5 ) ;
#55 = EDGE_LOOP ( 'NONE', ( #57, #129, #149, #36 ) ) ;
#56 = PRODUCT_RELATED_PRODUCT_CATEGORY ( 'detail', '', ( #126 ) ) ;
#57 = ORIENTED_EDGE ( 'NONE', *, *, #206, .F. ) ;
#58 = CLOSED_SHELL ( 'NONE', ( #200, #187, #62, #96, #150, #171 ) ) ;
#59 = MANIFOLD_SOLID_BREP ( 'Zkosení1', #58 ) ;
#60 = LOCAL_TIME ( 11, 41, 2.000000000000000000, #99 ) ;
#61 = DIRECTION ( 'NONE',  ( 0.000000000000000000, 0.000000000000000000, 1.000000000000000000 ) ) ;
#62 = ADVANCED_FACE ( 'NONE', ( #14 ), #43, .T. ) ;
#63 = CARTESIAN_POINT ( 'NONE',  ( 49.50000000000000000, 6.092617825758082298E-15, 4.000000000000000000 ) ) ;
#64 = ADVANCED_BREP_SHAPE_REPRESENTATION ( 'A_1732-100', ( #59, #77 ), #5 ) ;
#65 = APPLICATION_PROTOCOL_DEFINITION ( 'international standard', 'config_control_design', 1994, #160 ) ;
#66 = PERSON_AND_ORGANIZATION_ROLE ( 'creator' ) ;
#67 = CC_DESIGN_PERSON_AND_ORGANIZATION_ASSIGNMENT ( #176, #174, ( #143 ) ) ;
#68 = CC_DESIGN_DATE_AND_TIME_ASSIGNMENT ( #84, #144, ( #26 ) ) ;
#69 = ORIENTED_EDGE ( 'NONE', *, *, #86, .T. ) ;
#70 = ORIENTED_EDGE ( 'NONE', *, *, #33, .T. ) ;
#71 = AXIS2_PLACEMENT_3D ( 'NONE', #11, #41, #44 ) ;
#72 = CIRCLE ( 'NONE', #105, 50.00000000000000000 ) ;
#73 = CC_DESIGN_APPROVAL ( #158, ( #143 ) ) ;
#74 = CARTESIAN_POINT ( 'NONE',  ( -50.00000000000000000, 0.000000000000000000, 0.000000000000000000 ) ) ;
#75 = ORIENTED_EDGE ( 'NONE', *, *, #198, .T. ) ;
#76 = CYLINDRICAL_SURFACE ( 'NONE', #93, 50.00000000000000000 ) ;
#77 = AXIS2_PLACEMENT_3D ( 'NONE', #221, #118, #224 ) ;
#78 = DIRECTION ( 'NONE',  ( 0.000000000000000000, 0.000000000000000000, 1.000000000000000000 ) ) ;
#79 = FACE_OUTER_BOUND ( 'NONE', #6, .T. ) ;
#80 =( NAMED_UNIT ( * ) SI_UNIT ( $, .STERADIAN. ) SOLID_ANGLE_UNIT ( ) );
#81 = COORDINATED_UNIVERSAL_TIME_OFFSET ( 1, 0, .AHEAD. ) ;
#82 = LOCAL_TIME ( 11, 41, 2.000000000000000000, #180 ) ;
#83 = DATE_AND_TIME ( #190, #109 ) ;
#84 = DATE_AND_TIME ( #20, #53 ) ;
#85 = APPROVAL_STATUS ( 'not_yet_approved' ) ;
#86 = EDGE_CURVE ( 'NONE', #21, #146, #156, .T. ) ;
#87 = APPROVAL_DATE_TIME ( #51, #114 ) ;
#88 = ORIENTED_EDGE ( 'NONE', *, *, #8, .T. ) ;
#89 = VERTEX_POINT ( 'NONE', #25 ) ;
#90 = AXIS2_PLACEMENT_3D ( 'NONE', #159, #140, #119 ) ;
#91 = SHAPE_DEFINITION_REPRESENTATION ( #209, #64 ) ;
#92 = LINE ( 'NONE', #186, #122 ) ;
#93 = AXIS2_PLACEMENT_3D ( 'NONE', #152, #110, #182 ) ;
#94 = EDGE_LOOP ( 'NONE', ( #130, #75, #179, #27 ) ) ;
#95 = FACE_OUTER_BOUND ( 'NONE', #214, .T. ) ;
#96 = ADVANCED_FACE ( 'NONE', ( #95 ), #115, .T. ) ;
#97 = CIRCLE ( 'NONE', #4, 49.50000000000000000 ) ;
#98 = DIRECTION ( 'NONE',  ( -0.7071067811865622277, 0.000000000000000000, -0.7071067811865328068 ) ) ;
#99 = COORDINATED_UNIVERSAL_TIME_OFFSET ( 1, 0, .AHEAD. ) ;
#100 = VECTOR ( 'NONE', #154, 1000.000000000000000 ) ;
#101 = MECHANICAL_CONTEXT ( 'NONE', #48, 'mechanical' ) ;
#102 = APPROVAL_DATE_TIME ( #83, #157 ) ;
#103 = CC_DESIGN_PERSON_AND_ORGANIZATION_ASSIGNMENT ( #211, #139, ( #24 ) ) ;
#104 = CONICAL_SURFACE ( 'NONE', #52, 49.50000000000000000, 0.7853981633974691512 ) ;
#105 = AXIS2_PLACEMENT_3D ( 'NONE', #42, #61, #10 ) ;
#106 = APPROVAL_ROLE ( '' ) ;
#107 = ORIENTED_EDGE ( 'NONE', *, *, #7, .F. ) ;
#108 = EDGE_LOOP ( 'NONE', ( #107, #217, #23, #37 ) ) ;
#109 = LOCAL_TIME ( 11, 41, 2.000000000000000000, #81 ) ;
#110 = DIRECTION ( 'NONE',  ( -0.000000000000000000, -0.000000000000000000, -1.000000000000000000 ) ) ;
#111 = DESIGN_CONTEXT ( 'detailed design', #160, 'design' ) ;
#112 = DIRECTION ( 'NONE',  ( 0.000000000000000000, 0.000000000000000000, 1.000000000000000000 ) ) ;
#113 = CARTESIAN_POINT ( 'NONE',  ( 0.000000000000000000, 0.000000000000000000, 0.000000000000000000 ) ) ;
#114 = APPROVAL ( #196, 'NEURÈENÝ' ) ;
#115 = PLANE ( 'NONE',  #201 ) ;
#116 = CARTESIAN_POINT ( 'NONE',  ( -50.00000000000000000, 0.000000000000000000, 4.000000000000000000 ) ) ;
#117 = CONICAL_SURFACE ( 'NONE', #13, 49.50000000000000000, 0.7853981633974691512 ) ;
#118 = DIRECTION ( 'NONE',  ( 0.000000000000000000, 0.000000000000000000, 1.000000000000000000 ) ) ;
#119 = DIRECTION ( 'NONE',  ( 1.000000000000000000, 0.000000000000000000, 0.000000000000000000 ) ) ;
#120 = CALENDAR_DATE ( 2023, 25, 5 ) ;
#121 = FACE_OUTER_BOUND ( 'NONE', #55, .T. ) ;
#122 = VECTOR ( 'NONE', #98, 1000.000000000000000 ) ;
#123 = APPROVAL_ROLE ( '' ) ;
#124 = CC_DESIGN_PERSON_AND_ORGANIZATION_ASSIGNMENT ( #141, #66, ( #143 ) ) ;
#125 = PERSON_AND_ORGANIZATION ( #45, #219 ) ;
#126 = PRODUCT ( 'A_1732-100', 'A_1732-100', '', ( #101 ) ) ;
#127 = ORIENTED_EDGE ( 'NONE', *, *, #38, .F. ) ;
#128 = APPROVAL_PERSON_ORGANIZATION ( #191, #158, #123 ) ;
#129 = ORIENTED_EDGE ( 'NONE', *, *, #7, .T. ) ;
#130 = ORIENTED_EDGE ( 'NONE', *, *, #86, .F. ) ;
#131 = AXIS2_PLACEMENT_3D ( 'NONE', #18, #189, #47 ) ;
#132 = CIRCLE ( 'NONE', #155, 50.00000000000000000 ) ;
#133 = CARTESIAN_POINT ( 'NONE',  ( 0.000000000000000000, 0.000000000000000000, 3.500000000000020428 ) ) ;
#134 = CARTESIAN_POINT ( 'NONE',  ( 49.50000000000000000, 6.062001655779398511E-15, 4.000000000000000000 ) ) ;
#135 = AXIS2_PLACEMENT_3D ( 'NONE', #113, #78, #185 ) ;
#136 = CARTESIAN_POINT ( 'NONE',  ( 50.00000000000000000, 6.123233995736766085E-15, 3.500000000000020428 ) ) ;
#137 = VERTEX_POINT ( 'NONE', #153 ) ;
#138 = DIRECTION ( 'NONE',  ( -1.000000000000000000, 0.000000000000000000, 0.000000000000000000 ) ) ;
#139 = PERSON_AND_ORGANIZATION_ROLE ( 'creator' ) ;
#140 = DIRECTION ( 'NONE',  ( 0.000000000000000000, 0.000000000000000000, -1.000000000000000000 ) ) ;
#141 = PERSON_AND_ORGANIZATION ( #45, #219 ) ;
#142 = DATE_AND_TIME ( #120, #164 ) ;
#143 = PRODUCT_DEFINITION_FORMATION_WITH_SPECIFIED_SOURCE ( 'LIBOVOLNÝ', '', #126, .NOT_KNOWN. ) ;
#144 = DATE_TIME_ROLE ( 'classification_date' ) ;
#145 = APPROVAL_ROLE ( '' ) ;
#146 = VERTEX_POINT ( 'NONE', #30 ) ;
#147 = VERTEX_POINT ( 'NONE', #74 ) ;
#148 = ORIENTED_EDGE ( 'NONE', *, *, #207, .F. ) ;
#149 = ORIENTED_EDGE ( 'NONE', *, *, #33, .F. ) ;
#150 = ADVANCED_FACE ( 'NONE', ( #216 ), #204, .F. ) ;
#151 = CC_DESIGN_PERSON_AND_ORGANIZATION_ASSIGNMENT ( #50, #35, ( #26 ) ) ;
#152 = CARTESIAN_POINT ( 'NONE',  ( 0.000000000000000000, 0.000000000000000000, 4.000000000000000000 ) ) ;
#153 = CARTESIAN_POINT ( 'NONE',  ( -49.50000000000000000, 0.000000000000000000, 4.000000000000000000 ) ) ;
#154 = DIRECTION ( 'NONE',  ( -0.000000000000000000, -0.000000000000000000, -1.000000000000000000 ) ) ;
#155 = AXIS2_PLACEMENT_3D ( 'NONE', #210, #46, #32 ) ;
#156 = LINE ( 'NONE', #202, #100 ) ;
#157 = APPROVAL ( #49, 'NEURÈENÝ' ) ;
#158 = APPROVAL ( #85, 'NEURÈENÝ' ) ;
#159 = CARTESIAN_POINT ( 'NONE',  ( 0.000000000000000000, 0.000000000000000000, 3.500000000000020428 ) ) ;
#160 = APPLICATION_CONTEXT ( 'configuration controlled 3d designs of mechanical parts and assemblies' ) ;
#161 = EDGE_CURVE ( 'NONE', #137, #213, #97, .T. ) ;
#162 = CALENDAR_DATE ( 2023, 25, 5 ) ;
#163 = PERSON_AND_ORGANIZATION ( #45, #219 ) ;
#164 = LOCAL_TIME ( 11, 41, 2.000000000000000000, #17 ) ;
#165 = ORIENTED_EDGE ( 'NONE', *, *, #8, .F. ) ;
#166 = CC_DESIGN_DATE_AND_TIME_ASSIGNMENT ( #142, #177, ( #24 ) ) ;
#167 = LINE ( 'NONE', #134, #188 ) ;
#168 = DIRECTION ( 'NONE',  ( 0.000000000000000000, 0.000000000000000000, -1.000000000000000000 ) ) ;
#169 = CARTESIAN_POINT ( 'NONE',  ( 0.000000000000000000, 0.000000000000000000, 4.000000000000000000 ) ) ;
#170 = DIRECTION ( 'NONE',  ( 1.000000000000000000, 0.000000000000000000, 0.000000000000000000 ) ) ;
#171 = ADVANCED_FACE ( 'NONE', ( #40 ), #104, .T. ) ;
#172 =( LENGTH_UNIT ( ) NAMED_UNIT ( * ) SI_UNIT ( .MILLI., .METRE. ) );
#173 = DIRECTION ( 'NONE',  ( 0.000000000000000000, 0.000000000000000000, -1.000000000000000000 ) ) ;
#174 = PERSON_AND_ORGANIZATION_ROLE ( 'design_supplier' ) ;
#175 = COORDINATED_UNIVERSAL_TIME_OFFSET ( 1, 0, .AHEAD. ) ;
#176 = PERSON_AND_ORGANIZATION ( #45, #219 ) ;
#177 = DATE_TIME_ROLE ( 'creation_date' ) ;
#178 = APPROVAL_PERSON_ORGANIZATION ( #163, #157, #145 ) ;
#179 = ORIENTED_EDGE ( 'NONE', *, *, #38, .T. ) ;
#180 = COORDINATED_UNIVERSAL_TIME_OFFSET ( 1, 0, .AHEAD. ) ;
#181 = ORIENTED_EDGE ( 'NONE', *, *, #161, .T. ) ;
#182 = DIRECTION ( 'NONE',  ( -1.000000000000000000, 0.000000000000000000, 0.000000000000000000 ) ) ;
#183 = DIRECTION ( 'NONE',  ( 1.000000000000000000, 0.000000000000000000, -0.000000000000000000 ) ) ;
#184 = APPROVAL_PERSON_ORGANIZATION ( #125, #114, #106 ) ;
#185 = DIRECTION ( 'NONE',  ( 1.000000000000000000, 0.000000000000000000, -0.000000000000000000 ) ) ;
#186 = CARTESIAN_POINT ( 'NONE',  ( -49.50000000000000000, 0.000000000000000000, 4.000000000000000000 ) ) ;
#187 = ADVANCED_FACE ( 'NONE', ( #79 ), #76, .T. ) ;
#188 = VECTOR ( 'NONE', #215, 1000.000000000000000 ) ;
#189 = DIRECTION ( 'NONE',  ( 0.000000000000000000, 0.000000000000000000, 1.000000000000000000 ) ) ;
#190 = CALENDAR_DATE ( 2023, 25, 5 ) ;
#191 = PERSON_AND_ORGANIZATION ( #45, #219 ) ;
#192 = SECURITY_CLASSIFICATION_LEVEL ( 'unclassified' ) ;
#193 = CIRCLE ( 'NONE', #90, 50.00000000000000000 ) ;
#194 = CC_DESIGN_APPROVAL ( #114, ( #26 ) ) ;
#195 = DATE_AND_TIME ( #162, #60 ) ;
#196 = APPROVAL_STATUS ( 'not_yet_approved' ) ;
#197 = CC_DESIGN_PERSON_AND_ORGANIZATION_ASSIGNMENT ( #2, #225, ( #126 ) ) ;
#198 = EDGE_CURVE ( 'NONE', #21, #89, #193, .T. ) ;
#199 = ORIENTED_EDGE ( 'NONE', *, *, #206, .T. ) ;
#200 = ADVANCED_FACE ( 'NONE', ( #121 ), #117, .T. ) ;
#201 = AXIS2_PLACEMENT_3D ( 'NONE', #169, #112, #183 ) ;
#202 = CARTESIAN_POINT ( 'NONE',  ( 50.00000000000000000, 6.123233995736766085E-15, 4.000000000000000000 ) ) ;
#203 = DIRECTION ( 'NONE',  ( -0.000000000000000000, -0.000000000000000000, -1.000000000000000000 ) ) ;
#204 = PLANE ( 'NONE',  #135 ) ;
#205 = DIRECTION ( 'NONE',  ( 1.000000000000000000, 0.000000000000000000, 0.000000000000000000 ) ) ;
#206 = EDGE_CURVE ( 'NONE', #213, #137, #1, .T. ) ;
#207 = EDGE_CURVE ( 'NONE', #147, #146, #132, .T. ) ;
#208 = DIRECTION ( 'NONE',  ( 0.000000000000000000, 0.000000000000000000, -1.000000000000000000 ) ) ;
#209 = PRODUCT_DEFINITION_SHAPE ( 'NONE', 'NONE',  #24 ) ;
#210 = CARTESIAN_POINT ( 'NONE',  ( 0.000000000000000000, 0.000000000000000000, 0.000000000000000000 ) ) ;
#211 = PERSON_AND_ORGANIZATION ( #45, #219 ) ;
#212 = EDGE_LOOP ( 'NONE', ( #148, #165 ) ) ;
#213 = VERTEX_POINT ( 'NONE', #63 ) ;
#214 = EDGE_LOOP ( 'NONE', ( #181, #199 ) ) ;
#215 = DIRECTION ( 'NONE',  ( 0.7071067811865622277, 8.659560562355112817E-17, -0.7071067811865328068 ) ) ;
#216 = FACE_OUTER_BOUND ( 'NONE', #212, .T. ) ;
#217 = ORIENTED_EDGE ( 'NONE', *, *, #161, .F. ) ;
#218 = VECTOR ( 'NONE', #203, 1000.000000000000000 ) ;
#219 = ORGANIZATION ( 'NEURÈENÝ', 'NEURÈENÝ', '' ) ;
#220 = DIRECTION ( 'NONE',  ( 0.000000000000000000, 0.000000000000000000, 1.000000000000000000 ) ) ;
#221 = CARTESIAN_POINT ( 'NONE',  ( 0.000000000000000000, 0.000000000000000000, 0.000000000000000000 ) ) ;
#222 = CARTESIAN_POINT ( 'NONE',  ( 0.000000000000000000, 0.000000000000000000, 4.000000000000000000 ) ) ;
#223 =( NAMED_UNIT ( * ) PLANE_ANGLE_UNIT ( ) SI_UNIT ( $, .RADIAN. ) );
#224 = DIRECTION ( 'NONE',  ( 1.000000000000000000, 0.000000000000000000, 0.000000000000000000 ) ) ;
#225 = PERSON_AND_ORGANIZATION_ROLE ( 'design_owner' ) ;
ENDSEC;
END-ISO-10303-21;
