ISO-10303-21;
HEADER;
FILE_DESCRIPTION (( 'STEP AP203' ),
    '1' );
FILE_NAME ('A_1732-120x6.STEP',
    '2023-03-02T07:54:22',
    ( '' ),
    ( '' ),
    'SwSTEP 2.0',
    'SolidWorks 2019',
    '' );
FILE_SCHEMA (( 'CONFIG_CONTROL_DESIGN' ));
ENDSEC;

DATA;
#1 = EDGE_LOOP ( 'NONE', ( #162, #133, #24, #93 ) ) ;
#2 = PLANE ( 'NONE',  #128 ) ;
#3 = AXIS2_PLACEMENT_3D ( 'NONE', #113, #225, #169 ) ;
#4 = CC_DESIGN_PERSON_AND_ORGANIZATION_ASSIGNMENT ( #74, #124, ( #41 ) ) ;
#5 = CARTESIAN_POINT ( 'NONE',  ( 60.00000000000000000, 7.347880794884118356E-15, 6.000000000000000000 ) ) ;
#6 = PRODUCT_DEFINITION_SHAPE ( 'NONE', 'NONE',  #41 ) ;
#7 = DIRECTION ( 'NONE',  ( -1.000000000000000000, 0.000000000000000000, 0.000000000000000000 ) ) ;
#8 = DIRECTION ( 'NONE',  ( 0.000000000000000000, 0.000000000000000000, 1.000000000000000000 ) ) ;
#9 = ORIENTED_EDGE ( 'NONE', *, *, #126, .F. ) ;
#10 = LINE ( 'NONE', #5, #15 ) ;
#11 = APPLICATION_PROTOCOL_DEFINITION ( 'international standard', 'config_control_design', 1994, #114 ) ;
#12 = PRODUCT_RELATED_PRODUCT_CATEGORY ( 'detail', '', ( #178 ) ) ;
#13 = LOCAL_TIME ( 8, 54, 22.00000000000000000, #199 ) ;
#14 = ADVANCED_BREP_SHAPE_REPRESENTATION ( 'A_1732-120x6', ( #149, #173 ), #46 ) ;
#15 = VECTOR ( 'NONE', #70, 1000.000000000000000 ) ;
#16 = APPLICATION_CONTEXT ( 'configuration controlled 3d designs of mechanical parts and assemblies' ) ;
#17 = ORIENTED_EDGE ( 'NONE', *, *, #18, .F. ) ;
#18 = EDGE_CURVE ( 'NONE', #198, #51, #152, .T. ) ;
#19 = DIRECTION ( 'NONE',  ( 1.000000000000000000, 0.000000000000000000, -0.000000000000000000 ) ) ;
#20 = CARTESIAN_POINT ( 'NONE',  ( 0.000000000000000000, 0.000000000000000000, 0.000000000000000000 ) ) ;
#21 = DIRECTION ( 'NONE',  ( -0.7071067811865376918, 0.000000000000000000, -0.7071067811865574537 ) ) ;
#22 = CYLINDRICAL_SURFACE ( 'NONE', #107, 60.00000000000000000 ) ;
#23 = DATE_AND_TIME ( #89, #122 ) ;
#24 = ORIENTED_EDGE ( 'NONE', *, *, #144, .F. ) ;
#25 = APPROVAL_STATUS ( 'not_yet_approved' ) ;
#26 = PERSON_AND_ORGANIZATION_ROLE ( 'design_supplier' ) ;
#27 = CC_DESIGN_PERSON_AND_ORGANIZATION_ASSIGNMENT ( #75, #184, ( #140 ) ) ;
#28 = COORDINATED_UNIVERSAL_TIME_OFFSET ( 1, 0, .AHEAD. ) ;
#29 = EDGE_CURVE ( 'NONE', #204, #143, #96, .T. ) ;
#30 = ORIENTED_EDGE ( 'NONE', *, *, #126, .T. ) ;
#31 = PRODUCT_DEFINITION_FORMATION_WITH_SPECIFIED_SOURCE ( 'LIBOVOLNÝ', '', #178, .NOT_KNOWN. ) ;
#32 = ADVANCED_FACE ( 'NONE', ( #211 ), #195, .T. ) ;
#33 = CIRCLE ( 'NONE', #136, 60.00000000000000000 ) ;
#34 = ORIENTED_EDGE ( 'NONE', *, *, #29, .T. ) ;
#35 = DIRECTION ( 'NONE',  ( 0.000000000000000000, 0.000000000000000000, -1.000000000000000000 ) ) ;
#36 = CARTESIAN_POINT ( 'NONE',  ( 0.000000000000000000, 0.000000000000000000, 5.500000000000034639 ) ) ;
#37 = VECTOR ( 'NONE', #187, 1000.000000000000000 ) ;
#38 = CYLINDRICAL_SURFACE ( 'NONE', #191, 60.00000000000000000 ) ;
#39 = PLANE ( 'NONE',  #201 ) ;
#40 = PERSON_AND_ORGANIZATION ( #53, #186 ) ;
#41 = PRODUCT_DEFINITION ( 'NEZNÁMÝ', '', #31, #159 ) ;
#42 = APPROVAL_DATE_TIME ( #163, #188 ) ;
#43 = SECURITY_CLASSIFICATION_LEVEL ( 'unclassified' ) ;
#44 = VERTEX_POINT ( 'NONE', #87 ) ;
#45 = COORDINATED_UNIVERSAL_TIME_OFFSET ( 1, 0, .AHEAD. ) ;
#46 =( GEOMETRIC_REPRESENTATION_CONTEXT ( 3 ) GLOBAL_UNCERTAINTY_ASSIGNED_CONTEXT ( ( #99 ) ) GLOBAL_UNIT_ASSIGNED_CONTEXT ( ( #189, #78, #112 ) ) REPRESENTATION_CONTEXT ( 'NONE', 'WORKASPACE' ) );
#47 = APPROVAL_PERSON_ORGANIZATION ( #205, #49, #148 ) ;
#48 = CARTESIAN_POINT ( 'NONE',  ( -60.00000000000000000, 0.000000000000000000, 6.000000000000000000 ) ) ;
#49 = APPROVAL ( #105, 'NEURÈENÝ' ) ;
#50 = ADVANCED_FACE ( 'NONE', ( #55 ), #214, .T. ) ;
#51 = VERTEX_POINT ( 'NONE', #85 ) ;
#52 = ORIENTED_EDGE ( 'NONE', *, *, #207, .T. ) ;
#53 = PERSON ( 'NEURÈENÝ', 'NEURÈENÝ', 'NEURÈENÝ', ('NEURÈENÝ'), ('NEURÈENÝ'), ('NEURÈENÝ') ) ;
#54 = DIRECTION ( 'NONE',  ( 1.000000000000000000, 0.000000000000000000, -0.000000000000000000 ) ) ;
#55 = FACE_OUTER_BOUND ( 'NONE', #172, .T. ) ;
#56 = DIRECTION ( 'NONE',  ( 1.000000000000000000, 0.000000000000000000, 0.000000000000000000 ) ) ;
#57 = CARTESIAN_POINT ( 'NONE',  ( 0.000000000000000000, 0.000000000000000000, 5.500000000000034639 ) ) ;
#58 = CALENDAR_DATE ( 2023, 2, 3 ) ;
#59 = DATE_AND_TIME ( #58, #168 ) ;
#60 = PERSON_AND_ORGANIZATION_ROLE ( 'creator' ) ;
#61 = APPLICATION_PROTOCOL_DEFINITION ( 'international standard', 'config_control_design', 1994, #16 ) ;
#62 = CC_DESIGN_PERSON_AND_ORGANIZATION_ASSIGNMENT ( #73, #26, ( #31 ) ) ;
#63 = AXIS2_PLACEMENT_3D ( 'NONE', #202, #86, #134 ) ;
#64 = ORIENTED_EDGE ( 'NONE', *, *, #144, .T. ) ;
#65 = CARTESIAN_POINT ( 'NONE',  ( 59.50000000000004263, 7.286648454926757092E-15, 6.000000000000000000 ) ) ;
#66 = DIRECTION ( 'NONE',  ( 0.7071067811865376918, 8.659560562354813296E-17, -0.7071067811865574537 ) ) ;
#67 = CARTESIAN_POINT ( 'NONE',  ( 0.000000000000000000, 0.000000000000000000, 6.000000000000000000 ) ) ;
#68 = AXIS2_PLACEMENT_3D ( 'NONE', #57, #194, #139 ) ;
#69 = CARTESIAN_POINT ( 'NONE',  ( -60.00000000000000000, 0.000000000000000000, 5.500000000000034639 ) ) ;
#70 = DIRECTION ( 'NONE',  ( -0.000000000000000000, -0.000000000000000000, -1.000000000000000000 ) ) ;
#71 = MECHANICAL_CONTEXT ( 'NONE', #16, 'mechanical' ) ;
#72 = COORDINATED_UNIVERSAL_TIME_OFFSET ( 1, 0, .AHEAD. ) ;
#73 = PERSON_AND_ORGANIZATION ( #53, #186 ) ;
#74 = PERSON_AND_ORGANIZATION ( #53, #186 ) ;
#75 = PERSON_AND_ORGANIZATION ( #53, #186 ) ;
#76 = AXIS2_PLACEMENT_3D ( 'NONE', #36, #35, #56 ) ;
#77 = ADVANCED_FACE ( 'NONE', ( #219 ), #2, .T. ) ;
#78 =( NAMED_UNIT ( * ) PLANE_ANGLE_UNIT ( ) SI_UNIT ( $, .RADIAN. ) );
#79 = CC_DESIGN_APPROVAL ( #188, ( #31 ) ) ;
#80 = ADVANCED_FACE ( 'NONE', ( #119 ), #22, .T. ) ;
#81 = DIRECTION ( 'NONE',  ( 0.000000000000000000, 0.000000000000000000, -1.000000000000000000 ) ) ;
#82 = VECTOR ( 'NONE', #21, 999.9999999999998863 ) ;
#83 = CC_DESIGN_PERSON_AND_ORGANIZATION_ASSIGNMENT ( #182, #88, ( #178 ) ) ;
#84 = CARTESIAN_POINT ( 'NONE',  ( -59.50000000000004263, 0.000000000000000000, 6.000000000000000000 ) ) ;
#85 = CARTESIAN_POINT ( 'NONE',  ( 60.00000000000000000, 7.347880794884118356E-15, 0.000000000000000000 ) ) ;
#86 = DIRECTION ( 'NONE',  ( 0.000000000000000000, 0.000000000000000000, 1.000000000000000000 ) ) ;
#87 = CARTESIAN_POINT ( 'NONE',  ( 60.00000000000000000, 7.347880794884118356E-15, 5.500000000000034639 ) ) ;
#88 = PERSON_AND_ORGANIZATION_ROLE ( 'design_owner' ) ;
#89 = CALENDAR_DATE ( 2023, 2, 3 ) ;
#90 = APPROVAL_DATE_TIME ( #223, #49 ) ;
#91 = EDGE_LOOP ( 'NONE', ( #17, #157 ) ) ;
#92 = EDGE_CURVE ( 'NONE', #44, #51, #10, .T. ) ;
#93 = ORIENTED_EDGE ( 'NONE', *, *, #29, .F. ) ;
#94 = CARTESIAN_POINT ( 'NONE',  ( 59.50000000000004263, 7.317264624905437724E-15, 6.000000000000000000 ) ) ;
#95 = CC_DESIGN_PERSON_AND_ORGANIZATION_ASSIGNMENT ( #40, #60, ( #31 ) ) ;
#96 = LINE ( 'NONE', #84, #82 ) ;
#97 = APPROVAL_PERSON_ORGANIZATION ( #145, #188, #221 ) ;
#98 = CARTESIAN_POINT ( 'NONE',  ( -59.50000000000004263, 0.000000000000000000, 6.000000000000000000 ) ) ;
#99 = UNCERTAINTY_MEASURE_WITH_UNIT (LENGTH_MEASURE( 1.000000000000000082E-05 ), #189, 'distance_accuracy_value', 'NONE');
#100 = DIRECTION ( 'NONE',  ( 0.000000000000000000, 0.000000000000000000, 1.000000000000000000 ) ) ;
#101 = COORDINATED_UNIVERSAL_TIME_OFFSET ( 1, 0, .AHEAD. ) ;
#102 = ORIENTED_EDGE ( 'NONE', *, *, #18, .T. ) ;
#103 = APPROVAL_DATE_TIME ( #59, #147 ) ;
#104 = ADVANCED_FACE ( 'NONE', ( #156 ), #38, .T. ) ;
#105 = APPROVAL_STATUS ( 'not_yet_approved' ) ;
#106 = ORIENTED_EDGE ( 'NONE', *, *, #118, .T. ) ;
#107 = AXIS2_PLACEMENT_3D ( 'NONE', #179, #135, #117 ) ;
#108 = DATE_AND_TIME ( #127, #217 ) ;
#109 = AXIS2_PLACEMENT_3D ( 'NONE', #177, #215, #158 ) ;
#110 = CIRCLE ( 'NONE', #3, 59.50000000000004263 ) ;
#111 = APPROVAL_PERSON_ORGANIZATION ( #220, #147, #165 ) ;
#112 =( NAMED_UNIT ( * ) SI_UNIT ( $, .STERADIAN. ) SOLID_ANGLE_UNIT ( ) );
#113 = CARTESIAN_POINT ( 'NONE',  ( 0.000000000000000000, 0.000000000000000000, 6.000000000000000000 ) ) ;
#114 = APPLICATION_CONTEXT ( 'configuration controlled 3d designs of mechanical parts and assemblies' ) ;
#115 = ORIENTED_EDGE ( 'NONE', *, *, #92, .T. ) ;
#116 = EDGE_LOOP ( 'NONE', ( #64, #115, #106, #176 ) ) ;
#117 = DIRECTION ( 'NONE',  ( -1.000000000000000000, 0.000000000000000000, 0.000000000000000000 ) ) ;
#118 = EDGE_CURVE ( 'NONE', #51, #198, #33, .T. ) ;
#119 = FACE_OUTER_BOUND ( 'NONE', #116, .T. ) ;
#120 = CC_DESIGN_SECURITY_CLASSIFICATION ( #140, ( #31 ) ) ;
#121 = LINE ( 'NONE', #65, #131 ) ;
#122 = LOCAL_TIME ( 8, 54, 22.00000000000000000, #101 ) ;
#123 = CARTESIAN_POINT ( 'NONE',  ( 0.000000000000000000, 0.000000000000000000, 6.000000000000000000 ) ) ;
#124 = PERSON_AND_ORGANIZATION_ROLE ( 'creator' ) ;
#125 = CALENDAR_DATE ( 2023, 2, 3 ) ;
#126 = EDGE_CURVE ( 'NONE', #44, #143, #171, .T. ) ;
#127 = CALENDAR_DATE ( 2023, 2, 3 ) ;
#128 = AXIS2_PLACEMENT_3D ( 'NONE', #123, #175, #54 ) ;
#129 = EDGE_CURVE ( 'NONE', #204, #192, #185, .T. ) ;
#130 = DIRECTION ( 'NONE',  ( 0.000000000000000000, 0.000000000000000000, 1.000000000000000000 ) ) ;
#131 = VECTOR ( 'NONE', #66, 999.9999999999998863 ) ;
#132 = EDGE_LOOP ( 'NONE', ( #190, #210 ) ) ;
#133 = ORIENTED_EDGE ( 'NONE', *, *, #170, .T. ) ;
#134 = DIRECTION ( 'NONE',  ( 1.000000000000000000, 0.000000000000000000, 0.000000000000000000 ) ) ;
#135 = DIRECTION ( 'NONE',  ( -0.000000000000000000, -0.000000000000000000, -1.000000000000000000 ) ) ;
#136 = AXIS2_PLACEMENT_3D ( 'NONE', #20, #8, #137 ) ;
#137 = DIRECTION ( 'NONE',  ( 1.000000000000000000, 0.000000000000000000, 0.000000000000000000 ) ) ;
#138 = CIRCLE ( 'NONE', #76, 60.00000000000000000 ) ;
#139 = DIRECTION ( 'NONE',  ( 1.000000000000000000, 0.000000000000000000, 0.000000000000000000 ) ) ;
#140 = SECURITY_CLASSIFICATION ( '', '', #43 ) ;
#141 = DIRECTION ( 'NONE',  ( -1.000000000000000000, 0.000000000000000000, 0.000000000000000000 ) ) ;
#142 = APPROVAL_STATUS ( 'not_yet_approved' ) ;
#143 = VERTEX_POINT ( 'NONE', #69 ) ;
#144 = EDGE_CURVE ( 'NONE', #143, #44, #138, .T. ) ;
#145 = PERSON_AND_ORGANIZATION ( #53, #186 ) ;
#146 = DATE_TIME_ROLE ( 'classification_date' ) ;
#147 = APPROVAL ( #142, 'NEURÈENÝ' ) ;
#148 = APPROVAL_ROLE ( '' ) ;
#149 = MANIFOLD_SOLID_BREP ( 'Zkosení1', #167 ) ;
#150 = LINE ( 'NONE', #48, #37 ) ;
#151 = CC_DESIGN_APPROVAL ( #49, ( #140 ) ) ;
#152 = CIRCLE ( 'NONE', #63, 60.00000000000000000 ) ;
#153 = ORIENTED_EDGE ( 'NONE', *, *, #129, .F. ) ;
#154 = AXIS2_PLACEMENT_3D ( 'NONE', #67, #81, #141 ) ;
#155 = CARTESIAN_POINT ( 'NONE',  ( 0.000000000000000000, 0.000000000000000000, 6.000000000000000000 ) ) ;
#156 = FACE_OUTER_BOUND ( 'NONE', #180, .T. ) ;
#157 = ORIENTED_EDGE ( 'NONE', *, *, #118, .F. ) ;
#158 = DIRECTION ( 'NONE',  ( 1.000000000000000000, 0.000000000000000000, 0.000000000000000000 ) ) ;
#159 = DESIGN_CONTEXT ( 'detailed design', #114, 'design' ) ;
#160 = ORIENTED_EDGE ( 'NONE', *, *, #92, .F. ) ;
#161 = DIRECTION ( 'NONE',  ( -1.000000000000000000, 0.000000000000000000, 0.000000000000000000 ) ) ;
#162 = ORIENTED_EDGE ( 'NONE', *, *, #208, .F. ) ;
#163 = DATE_AND_TIME ( #125, #13 ) ;
#164 = CC_DESIGN_DATE_AND_TIME_ASSIGNMENT ( #23, #181, ( #41 ) ) ;
#165 = APPROVAL_ROLE ( '' ) ;
#166 = LOCAL_TIME ( 8, 54, 22.00000000000000000, #45 ) ;
#167 = CLOSED_SHELL ( 'NONE', ( #32, #80, #104, #77, #200, #50 ) ) ;
#168 = LOCAL_TIME ( 8, 54, 22.00000000000000000, #72 ) ;
#169 = DIRECTION ( 'NONE',  ( 1.000000000000000000, 0.000000000000000000, 0.000000000000000000 ) ) ;
#170 = EDGE_CURVE ( 'NONE', #192, #44, #121, .T. ) ;
#171 = CIRCLE ( 'NONE', #68, 60.00000000000000000 ) ;
#172 = EDGE_LOOP ( 'NONE', ( #218, #153, #34, #9 ) ) ;
#173 = AXIS2_PLACEMENT_3D ( 'NONE', #224, #130, #206 ) ;
#174 = FACE_OUTER_BOUND ( 'NONE', #91, .T. ) ;
#175 = DIRECTION ( 'NONE',  ( 0.000000000000000000, 0.000000000000000000, 1.000000000000000000 ) ) ;
#176 = ORIENTED_EDGE ( 'NONE', *, *, #207, .F. ) ;
#177 = CARTESIAN_POINT ( 'NONE',  ( 0.000000000000000000, 0.000000000000000000, 6.000000000000000000 ) ) ;
#178 = PRODUCT ( 'A_1732-120x6', 'A_1732-120x6', '', ( #71 ) ) ;
#179 = CARTESIAN_POINT ( 'NONE',  ( 0.000000000000000000, 0.000000000000000000, 6.000000000000000000 ) ) ;
#180 = EDGE_LOOP ( 'NONE', ( #160, #30, #52, #102 ) ) ;
#181 = DATE_TIME_ROLE ( 'creation_date' ) ;
#182 = PERSON_AND_ORGANIZATION ( #53, #186 ) ;
#183 = AXIS2_PLACEMENT_3D ( 'NONE', #155, #216, #161 ) ;
#184 = PERSON_AND_ORGANIZATION_ROLE ( 'classification_officer' ) ;
#185 = CIRCLE ( 'NONE', #109, 59.50000000000004263 ) ;
#186 = ORGANIZATION ( 'NEURÈENÝ', 'NEURÈENÝ', '' ) ;
#187 = DIRECTION ( 'NONE',  ( -0.000000000000000000, -0.000000000000000000, -1.000000000000000000 ) ) ;
#188 = APPROVAL ( #25, 'NEURÈENÝ' ) ;
#189 =( LENGTH_UNIT ( ) NAMED_UNIT ( * ) SI_UNIT ( .MILLI., .METRE. ) );
#190 = ORIENTED_EDGE ( 'NONE', *, *, #129, .T. ) ;
#191 = AXIS2_PLACEMENT_3D ( 'NONE', #212, #193, #7 ) ;
#192 = VERTEX_POINT ( 'NONE', #94 ) ;
#193 = DIRECTION ( 'NONE',  ( -0.000000000000000000, -0.000000000000000000, -1.000000000000000000 ) ) ;
#194 = DIRECTION ( 'NONE',  ( 0.000000000000000000, 0.000000000000000000, -1.000000000000000000 ) ) ;
#195 = CONICAL_SURFACE ( 'NONE', #154, 59.50000000000004263, 0.7853981633974344012 ) ;
#196 = CARTESIAN_POINT ( 'NONE',  ( 0.000000000000000000, 0.000000000000000000, 0.000000000000000000 ) ) ;
#197 = CARTESIAN_POINT ( 'NONE',  ( -60.00000000000000000, 0.000000000000000000, 0.000000000000000000 ) ) ;
#198 = VERTEX_POINT ( 'NONE', #197 ) ;
#199 = COORDINATED_UNIVERSAL_TIME_OFFSET ( 1, 0, .AHEAD. ) ;
#200 = ADVANCED_FACE ( 'NONE', ( #174 ), #39, .F. ) ;
#201 = AXIS2_PLACEMENT_3D ( 'NONE', #196, #100, #19 ) ;
#202 = CARTESIAN_POINT ( 'NONE',  ( 0.000000000000000000, 0.000000000000000000, 0.000000000000000000 ) ) ;
#203 = CALENDAR_DATE ( 2023, 2, 3 ) ;
#204 = VERTEX_POINT ( 'NONE', #98 ) ;
#205 = PERSON_AND_ORGANIZATION ( #53, #186 ) ;
#206 = DIRECTION ( 'NONE',  ( 1.000000000000000000, 0.000000000000000000, 0.000000000000000000 ) ) ;
#207 = EDGE_CURVE ( 'NONE', #143, #198, #150, .T. ) ;
#208 = EDGE_CURVE ( 'NONE', #192, #204, #110, .T. ) ;
#209 = CC_DESIGN_APPROVAL ( #147, ( #41 ) ) ;
#210 = ORIENTED_EDGE ( 'NONE', *, *, #208, .T. ) ;
#211 = FACE_OUTER_BOUND ( 'NONE', #1, .T. ) ;
#212 = CARTESIAN_POINT ( 'NONE',  ( 0.000000000000000000, 0.000000000000000000, 6.000000000000000000 ) ) ;
#213 = CC_DESIGN_DATE_AND_TIME_ASSIGNMENT ( #108, #146, ( #140 ) ) ;
#214 = CONICAL_SURFACE ( 'NONE', #183, 59.50000000000004263, 0.7853981633974344012 ) ;
#215 = DIRECTION ( 'NONE',  ( 0.000000000000000000, 0.000000000000000000, 1.000000000000000000 ) ) ;
#216 = DIRECTION ( 'NONE',  ( 0.000000000000000000, 0.000000000000000000, -1.000000000000000000 ) ) ;
#217 = LOCAL_TIME ( 8, 54, 22.00000000000000000, #28 ) ;
#218 = ORIENTED_EDGE ( 'NONE', *, *, #170, .F. ) ;
#219 = FACE_OUTER_BOUND ( 'NONE', #132, .T. ) ;
#220 = PERSON_AND_ORGANIZATION ( #53, #186 ) ;
#221 = APPROVAL_ROLE ( '' ) ;
#222 = SHAPE_DEFINITION_REPRESENTATION ( #6, #14 ) ;
#223 = DATE_AND_TIME ( #203, #166 ) ;
#224 = CARTESIAN_POINT ( 'NONE',  ( 0.000000000000000000, 0.000000000000000000, 0.000000000000000000 ) ) ;
#225 = DIRECTION ( 'NONE',  ( 0.000000000000000000, 0.000000000000000000, 1.000000000000000000 ) ) ;
ENDSEC;
END-ISO-10303-21;
