ISO-10303-21;
HEADER;
FILE_DESCRIPTION (( 'STEP AP203' ),
    '1' );
FILE_NAME ('A_1950-120.STEP',
    '2023-01-27T14:01:02',
    ( '' ),
    ( '' ),
    'SwSTEP 2.0',
    'SolidWorks 2019',
    '' );
FILE_SCHEMA (( 'CONFIG_CONTROL_DESIGN' ));
ENDSEC;

DATA;
#1 = LOCAL_TIME ( 15, 1, 2.000000000000000000, #28 ) ;
#2 = APPLICATION_PROTOCOL_DEFINITION ( 'international standard', 'config_control_design', 1994, #51 ) ;
#3 = COORDINATED_UNIVERSAL_TIME_OFFSET ( 1, 0, .AHEAD. ) ;
#4 = EDGE_LOOP ( 'NONE', ( #223, #55, #148, #97 ) ) ;
#5 = EDGE_CURVE ( 'NONE', #174, #34, #71, .T. ) ;
#6 = ORIENTED_EDGE ( 'NONE', *, *, #258, .T. ) ;
#7 = CIRCLE ( 'NONE', #316, 58.99999999999998579 ) ;
#8 = APPROVAL_PERSON_ORGANIZATION ( #315, #299, #317 ) ;
#9 = EDGE_LOOP ( 'NONE', ( #238, #173 ) ) ;
#10 = VERTEX_POINT ( 'NONE', #32 ) ;
#11 = CYLINDRICAL_SURFACE ( 'NONE', #89, 5.499999999999998224 ) ;
#12 = DIRECTION ( 'NONE',  ( 0.000000000000000000, 0.000000000000000000, 1.000000000000000000 ) ) ;
#13 = CARTESIAN_POINT ( 'NONE',  ( 0.000000000000000000, 0.000000000000000000, 6.000000000000000000 ) ) ;
#14 = CC_DESIGN_PERSON_AND_ORGANIZATION_ASSIGNMENT ( #31, #259, ( #47 ) ) ;
#15 = AXIS2_PLACEMENT_3D ( 'NONE', #195, #318, #56 ) ;
#16 = DIRECTION ( 'NONE',  ( 0.000000000000000000, 0.000000000000000000, 1.000000000000000000 ) ) ;
#17 = ADVANCED_FACE ( 'NONE', ( #101, #274, #103 ), #80, .F. ) ;
#18 = LOCAL_TIME ( 15, 1, 2.000000000000000000, #257 ) ;
#19 = EDGE_CURVE ( 'NONE', #10, #244, #121, .T. ) ;
#20 = CARTESIAN_POINT ( 'NONE',  ( 43.50000000000000711, 1.759332105648919889E-14, 6.000000000000000000 ) ) ;
#21 = DIRECTION ( 'NONE',  ( -0.000000000000000000, -0.000000000000000000, -1.000000000000000000 ) ) ;
#22 = DIRECTION ( 'NONE',  ( 0.000000000000000000, 0.000000000000000000, 1.000000000000000000 ) ) ;
#23 = APPROVAL_PERSON_ORGANIZATION ( #171, #125, #140 ) ;
#24 = PERSON ( 'NEURÈENÝ', 'NEURÈENÝ', 'NEURÈENÝ', ('NEURÈENÝ'), ('NEURÈENÝ'), ('NEURÈENÝ') ) ;
#25 = CARTESIAN_POINT ( 'NONE',  ( 43.50000000000000711, 1.759332105648919889E-14, 0.000000000000000000 ) ) ;
#26 = DIRECTION ( 'NONE',  ( 1.000000000000000000, 0.000000000000000000, 0.000000000000000000 ) ) ;
#27 = ORIENTED_EDGE ( 'NONE', *, *, #355, .T. ) ;
#28 = COORDINATED_UNIVERSAL_TIME_OFFSET ( 1, 0, .AHEAD. ) ;
#29 = EDGE_CURVE ( 'NONE', #174, #289, #48, .T. ) ;
#30 = AXIS2_PLACEMENT_3D ( 'NONE', #217, #69, #190 ) ;
#31 = PERSON_AND_ORGANIZATION ( #24, #345 ) ;
#32 = CARTESIAN_POINT ( 'NONE',  ( 49.00000000000000000, 1.826687679602024220E-14, 0.000000000000000000 ) ) ;
#33 = EDGE_CURVE ( 'NONE', #98, #10, #139, .T. ) ;
#34 = VERTEX_POINT ( 'NONE', #160 ) ;
#35 = ORIENTED_EDGE ( 'NONE', *, *, #288, .F. ) ;
#36 = VECTOR ( 'NONE', #54, 1000.000000000000000 ) ;
#37 = VERTEX_POINT ( 'NONE', #358 ) ;
#38 = DIRECTION ( 'NONE',  ( 0.000000000000000000, 0.000000000000000000, 1.000000000000000000 ) ) ;
#39 = CC_DESIGN_APPROVAL ( #125, ( #202 ) ) ;
#40 = DIRECTION ( 'NONE',  ( -0.000000000000000000, -0.000000000000000000, -1.000000000000000000 ) ) ;
#41 = CARTESIAN_POINT ( 'NONE',  ( 60.00000000000000000, 7.347880794884118356E-15, 0.000000000000000000 ) ) ;
#42 =( LENGTH_UNIT ( ) NAMED_UNIT ( * ) SI_UNIT ( .MILLI., .METRE. ) );
#43 = ADVANCED_FACE ( 'NONE', ( #267 ), #205, .T. ) ;
#44 = AXIS2_PLACEMENT_3D ( 'NONE', #110, #111, #251 ) ;
#45 = MANIFOLD_SOLID_BREP ( 'Zkosení1', #57 ) ;
#46 = CARTESIAN_POINT ( 'NONE',  ( -58.99999999999998579, 0.000000000000000000, 6.000000000000000000 ) ) ;
#47 = SECURITY_CLASSIFICATION ( '', '', #343 ) ;
#48 = LINE ( 'NONE', #219, #115 ) ;
#49 = CARTESIAN_POINT ( 'NONE',  ( -37.99999999999999289, 7.612449643438271692E-15, 6.000000000000000000 ) ) ;
#50 = LINE ( 'NONE', #370, #210 ) ;
#51 = APPLICATION_CONTEXT ( 'configuration controlled 3d designs of mechanical parts and assemblies' ) ;
#52 = DIRECTION ( 'NONE',  ( -0.000000000000000000, -0.000000000000000000, -1.000000000000000000 ) ) ;
#53 = AXIS2_PLACEMENT_3D ( 'NONE', #178, #38, #240 ) ;
#54 = DIRECTION ( 'NONE',  ( -0.000000000000000000, -0.000000000000000000, -1.000000000000000000 ) ) ;
#55 = ORIENTED_EDGE ( 'NONE', *, *, #288, .T. ) ;
#56 = DIRECTION ( 'NONE',  ( -1.000000000000000000, 0.000000000000000000, 0.000000000000000000 ) ) ;
#57 = CLOSED_SHELL ( 'NONE', ( #231, #136, #213, #266, #325, #17, #150, #58, #153, #43 ) ) ;
#58 = ADVANCED_FACE ( 'NONE', ( #269 ), #11, .F. ) ;
#59 = UNCERTAINTY_MEASURE_WITH_UNIT (LENGTH_MEASURE( 1.000000000000000082E-05 ), #42, 'distance_accuracy_value', 'NONE');
#60 = CALENDAR_DATE ( 2023, 27, 1 ) ;
#61 = AXIS2_PLACEMENT_3D ( 'NONE', #137, #303, #68 ) ;
#62 = DATE_AND_TIME ( #88, #18 ) ;
#63 = ORIENTED_EDGE ( 'NONE', *, *, #335, .F. ) ;
#64 = ORIENTED_EDGE ( 'NONE', *, *, #258, .F. ) ;
#65 = ORIENTED_EDGE ( 'NONE', *, *, #187, .T. ) ;
#66 = AXIS2_PLACEMENT_3D ( 'NONE', #25, #342, #300 ) ;
#67 = AXIS2_PLACEMENT_3D ( 'NONE', #361, #242, #78 ) ;
#68 = DIRECTION ( 'NONE',  ( 1.000000000000000000, 0.000000000000000000, 0.000000000000000000 ) ) ;
#69 = DIRECTION ( 'NONE',  ( 0.000000000000000000, 0.000000000000000000, 1.000000000000000000 ) ) ;
#70 = APPROVAL_PERSON_ORGANIZATION ( #196, #297, #93 ) ;
#71 = CIRCLE ( 'NONE', #284, 60.00000000000000000 ) ;
#72 = LINE ( 'NONE', #181, #95 ) ;
#73 = CARTESIAN_POINT ( 'NONE',  ( -58.99999999999998579, 0.000000000000000000, 6.000000000000000000 ) ) ;
#74 = FACE_OUTER_BOUND ( 'NONE', #141, .T. ) ;
#75 = DIRECTION ( 'NONE',  ( -0.000000000000000000, -0.000000000000000000, -1.000000000000000000 ) ) ;
#76 = LINE ( 'NONE', #336, #36 ) ;
#77 = CARTESIAN_POINT ( 'NONE',  ( -60.00000000000000000, 0.000000000000000000, 4.999999999999971578 ) ) ;
#78 = DIRECTION ( 'NONE',  ( 1.000000000000000000, 0.000000000000000000, 0.000000000000000000 ) ) ;
#79 = CARTESIAN_POINT ( 'NONE',  ( 43.50000000000000711, 1.759332105648919889E-14, 6.000000000000000000 ) ) ;
#80 = PLANE ( 'NONE',  #302 ) ;
#81 = DIRECTION ( 'NONE',  ( -0.000000000000000000, -0.000000000000000000, -1.000000000000000000 ) ) ;
#82 = AXIS2_PLACEMENT_3D ( 'NONE', #310, #192, #368 ) ;
#83 = CALENDAR_DATE ( 2023, 27, 1 ) ;
#84 = AXIS2_PLACEMENT_3D ( 'NONE', #365, #340, #314 ) ;
#85 = LINE ( 'NONE', #182, #175 ) ;
#86 =( GEOMETRIC_REPRESENTATION_CONTEXT ( 3 ) GLOBAL_UNCERTAINTY_ASSIGNED_CONTEXT ( ( #59 ) ) GLOBAL_UNIT_ASSIGNED_CONTEXT ( ( #42, #132, #106 ) ) REPRESENTATION_CONTEXT ( 'NONE', 'WORKASPACE' ) );
#87 = EDGE_CURVE ( 'NONE', #37, #146, #245, .T. ) ;
#88 = CALENDAR_DATE ( 2023, 27, 1 ) ;
#89 = AXIS2_PLACEMENT_3D ( 'NONE', #20, #329, #209 ) ;
#90 = ORIENTED_EDGE ( 'NONE', *, *, #286, .F. ) ;
#91 = PERSON_AND_ORGANIZATION_ROLE ( 'creator' ) ;
#92 = EDGE_CURVE ( 'NONE', #34, #174, #350, .T. ) ;
#93 = APPROVAL_ROLE ( '' ) ;
#94 = ORIENTED_EDGE ( 'NONE', *, *, #92, .T. ) ;
#95 = VECTOR ( 'NONE', #311, 1000.000000000000000 ) ;
#96 = EDGE_LOOP ( 'NONE', ( #208, #227, #226, #126 ) ) ;
#97 = ORIENTED_EDGE ( 'NONE', *, *, #127, .F. ) ;
#98 = VERTEX_POINT ( 'NONE', #154 ) ;
#99 = EDGE_CURVE ( 'NONE', #203, #98, #243, .T. ) ;
#100 = ORIENTED_EDGE ( 'NONE', *, *, #327, .T. ) ;
#101 = FACE_OUTER_BOUND ( 'NONE', #353, .T. ) ;
#102 = PRODUCT ( 'A_1950-120', 'A_1950-120', '', ( #319 ) ) ;
#103 = FACE_BOUND ( 'NONE', #287, .T. ) ;
#104 = AXIS2_PLACEMENT_3D ( 'NONE', #185, #305, #271 ) ;
#105 = DIRECTION ( 'NONE',  ( 1.000000000000000000, 0.000000000000000000, 0.000000000000000000 ) ) ;
#106 =( NAMED_UNIT ( * ) SI_UNIT ( $, .STERADIAN. ) SOLID_ANGLE_UNIT ( ) );
#107 = CARTESIAN_POINT ( 'NONE',  ( 0.000000000000000000, 0.000000000000000000, 6.000000000000000000 ) ) ;
#108 = FACE_OUTER_BOUND ( 'NONE', #206, .T. ) ;
#109 = CARTESIAN_POINT ( 'NONE',  ( -37.99999999999999289, 7.612449643438271692E-15, 0.000000000000000000 ) ) ;
#110 = CARTESIAN_POINT ( 'NONE',  ( 0.000000000000000000, 0.000000000000000000, 6.000000000000000000 ) ) ;
#111 = DIRECTION ( 'NONE',  ( 0.000000000000000000, 0.000000000000000000, -1.000000000000000000 ) ) ;
#112 = CC_DESIGN_PERSON_AND_ORGANIZATION_ASSIGNMENT ( #143, #371, ( #202 ) ) ;
#113 = PERSON_AND_ORGANIZATION ( #24, #345 ) ;
#114 = LOCAL_TIME ( 15, 1, 2.000000000000000000, #3 ) ;
#115 = VECTOR ( 'NONE', #21, 1000.000000000000000 ) ;
#116 = PERSON_AND_ORGANIZATION_ROLE ( 'design_owner' ) ;
#117 = PERSON_AND_ORGANIZATION ( #24, #345 ) ;
#118 = ORIENTED_EDGE ( 'NONE', *, *, #214, .T. ) ;
#119 = CIRCLE ( 'NONE', #66, 5.499999999999998224 ) ;
#120 = ORIENTED_EDGE ( 'NONE', *, *, #301, .T. ) ;
#121 = CIRCLE ( 'NONE', #61, 5.499999999999998224 ) ;
#122 = CC_DESIGN_APPROVAL ( #297, ( #47 ) ) ;
#123 = ORIENTED_EDGE ( 'NONE', *, *, #33, .F. ) ;
#124 = ORIENTED_EDGE ( 'NONE', *, *, #364, .F. ) ;
#125 = APPROVAL ( #290, 'NEURÈENÝ' ) ;
#126 = ORIENTED_EDGE ( 'NONE', *, *, #327, .F. ) ;
#127 = EDGE_CURVE ( 'NONE', #146, #237, #50, .T. ) ;
#128 = CARTESIAN_POINT ( 'NONE',  ( -48.99999999999998579, 6.938893903907227589E-15, 6.000000000000000000 ) ) ;
#129 = DIRECTION ( 'NONE',  ( 1.000000000000000000, 0.000000000000000000, 0.000000000000000000 ) ) ;
#130 = CARTESIAN_POINT ( 'NONE',  ( 0.000000000000000000, 0.000000000000000000, 0.000000000000000000 ) ) ;
#131 = AXIS2_PLACEMENT_3D ( 'NONE', #216, #163, #282 ) ;
#132 =( NAMED_UNIT ( * ) PLANE_ANGLE_UNIT ( ) SI_UNIT ( $, .RADIAN. ) );
#133 = CIRCLE ( 'NONE', #225, 60.00000000000000000 ) ;
#134 = LINE ( 'NONE', #73, #307 ) ;
#135 = DIRECTION ( 'NONE',  ( -0.000000000000000000, -0.000000000000000000, -1.000000000000000000 ) ) ;
#136 = ADVANCED_FACE ( 'NONE', ( #211 ), #333, .F. ) ;
#137 = CARTESIAN_POINT ( 'NONE',  ( 43.50000000000000711, 1.759332105648919889E-14, 0.000000000000000000 ) ) ;
#138 = CC_DESIGN_SECURITY_CLASSIFICATION ( #47, ( #202 ) ) ;
#139 = LINE ( 'NONE', #179, #338 ) ;
#140 = APPROVAL_ROLE ( '' ) ;
#141 = EDGE_LOOP ( 'NONE', ( #348, #94, #152, #347 ) ) ;
#142 = ORIENTED_EDGE ( 'NONE', *, *, #87, .T. ) ;
#143 = PERSON_AND_ORGANIZATION ( #24, #345 ) ;
#144 = DATE_AND_TIME ( #60, #1 ) ;
#145 = ORIENTED_EDGE ( 'NONE', *, *, #33, .T. ) ;
#146 = VERTEX_POINT ( 'NONE', #128 ) ;
#147 = AXIS2_PLACEMENT_3D ( 'NONE', #167, #188, #26 ) ;
#148 = ORIENTED_EDGE ( 'NONE', *, *, #201, .F. ) ;
#149 = AXIS2_PLACEMENT_3D ( 'NONE', #13, #334, #158 ) ;
#150 = ADVANCED_FACE ( 'NONE', ( #74 ), #184, .T. ) ;
#151 = EDGE_LOOP ( 'NONE', ( #373, #118, #27, #260 ) ) ;
#152 = ORIENTED_EDGE ( 'NONE', *, *, #29, .T. ) ;
#153 = ADVANCED_FACE ( 'NONE', ( #108 ), #337, .F. ) ;
#154 = CARTESIAN_POINT ( 'NONE',  ( 49.00000000000000000, 1.826687679602024220E-14, 6.000000000000000000 ) ) ;
#155 = DIRECTION ( 'NONE',  ( 0.000000000000000000, 0.000000000000000000, 1.000000000000000000 ) ) ;
#156 = FACE_OUTER_BOUND ( 'NONE', #177, .T. ) ;
#157 = DIRECTION ( 'NONE',  ( 1.000000000000000000, 0.000000000000000000, 0.000000000000000000 ) ) ;
#158 = DIRECTION ( 'NONE',  ( 1.000000000000000000, 0.000000000000000000, 0.000000000000000000 ) ) ;
#159 = CC_DESIGN_PERSON_AND_ORGANIZATION_ASSIGNMENT ( #172, #221, ( #202 ) ) ;
#160 = CARTESIAN_POINT ( 'NONE',  ( 60.00000000000000000, 7.347880794884118356E-15, 4.999999999999971578 ) ) ;
#161 = CARTESIAN_POINT ( 'NONE',  ( 0.000000000000000000, 0.000000000000000000, 6.000000000000000000 ) ) ;
#162 = AXIS2_PLACEMENT_3D ( 'NONE', #249, #189, #220 ) ;
#163 = DIRECTION ( 'NONE',  ( -0.000000000000000000, -0.000000000000000000, -1.000000000000000000 ) ) ;
#164 = CARTESIAN_POINT ( 'NONE',  ( 58.99999999999998579, 7.286648454926750781E-15, 6.000000000000000000 ) ) ;
#165 = DIRECTION ( 'NONE',  ( 1.000000000000000000, 0.000000000000000000, -0.000000000000000000 ) ) ;
#166 = LOCAL_TIME ( 15, 1, 2.000000000000000000, #349 ) ;
#167 = CARTESIAN_POINT ( 'NONE',  ( -43.49999999999999289, 6.938893903907227589E-15, 6.000000000000000000 ) ) ;
#168 = ORIENTED_EDGE ( 'NONE', *, *, #301, .F. ) ;
#169 = CARTESIAN_POINT ( 'NONE',  ( -48.99999999999998579, 6.938893903907227589E-15, 0.000000000000000000 ) ) ;
#170 = EDGE_LOOP ( 'NONE', ( #328, #168 ) ) ;
#171 = PERSON_AND_ORGANIZATION ( #24, #345 ) ;
#172 = PERSON_AND_ORGANIZATION ( #24, #345 ) ;
#173 = ORIENTED_EDGE ( 'NONE', *, *, #87, .F. ) ;
#174 = VERTEX_POINT ( 'NONE', #77 ) ;
#175 = VECTOR ( 'NONE', #250, 1000.000000000000000 ) ;
#176 = ORIENTED_EDGE ( 'NONE', *, *, #19, .F. ) ;
#177 = EDGE_LOOP ( 'NONE', ( #293, #262 ) ) ;
#178 = CARTESIAN_POINT ( 'NONE',  ( -43.49999999999999289, 6.938893903907227589E-15, 0.000000000000000000 ) ) ;
#179 = CARTESIAN_POINT ( 'NONE',  ( 49.00000000000000000, 1.826687679602024220E-14, 6.000000000000000000 ) ) ;
#180 = APPLICATION_PROTOCOL_DEFINITION ( 'international standard', 'config_control_design', 1994, #367 ) ;
#181 = CARTESIAN_POINT ( 'NONE',  ( 58.99999999999998579, 7.225416114969381630E-15, 6.000000000000000000 ) ) ;
#182 = CARTESIAN_POINT ( 'NONE',  ( 38.00000000000000711, 1.759332105648919889E-14, 6.000000000000000000 ) ) ;
#183 = PRODUCT_DEFINITION ( 'NEZNÁMÝ', '', #202, #197 ) ;
#184 = CYLINDRICAL_SURFACE ( 'NONE', #233, 60.00000000000000000 ) ;
#185 = CARTESIAN_POINT ( 'NONE',  ( 0.000000000000000000, 0.000000000000000000, 6.000000000000000000 ) ) ;
#186 = CIRCLE ( 'NONE', #67, 60.00000000000000000 ) ;
#187 = EDGE_CURVE ( 'NONE', #244, #10, #119, .T. ) ;
#188 = DIRECTION ( 'NONE',  ( 0.000000000000000000, 0.000000000000000000, 1.000000000000000000 ) ) ;
#189 = DIRECTION ( 'NONE',  ( 0.000000000000000000, 0.000000000000000000, 1.000000000000000000 ) ) ;
#190 = DIRECTION ( 'NONE',  ( 1.000000000000000000, 0.000000000000000000, 0.000000000000000000 ) ) ;
#191 = ADVANCED_BREP_SHAPE_REPRESENTATION ( 'A_1950-120', ( #45, #272 ), #86 ) ;
#192 = DIRECTION ( 'NONE',  ( 0.000000000000000000, 0.000000000000000000, -1.000000000000000000 ) ) ;
#193 = DIRECTION ( 'NONE',  ( -1.000000000000000000, 0.000000000000000000, 0.000000000000000000 ) ) ;
#194 = AXIS2_PLACEMENT_3D ( 'NONE', #79, #81, #193 ) ;
#195 = CARTESIAN_POINT ( 'NONE',  ( 0.000000000000000000, 0.000000000000000000, 6.000000000000000000 ) ) ;
#196 = PERSON_AND_ORGANIZATION ( #24, #345 ) ;
#197 = DESIGN_CONTEXT ( 'detailed design', #51, 'design' ) ;
#198 = DIRECTION ( 'NONE',  ( 1.000000000000000000, 0.000000000000000000, 0.000000000000000000 ) ) ;
#199 = CC_DESIGN_PERSON_AND_ORGANIZATION_ASSIGNMENT ( #117, #91, ( #183 ) ) ;
#200 = CALENDAR_DATE ( 2023, 27, 1 ) ;
#201 = EDGE_CURVE ( 'NONE', #237, #312, #280, .T. ) ;
#202 = PRODUCT_DEFINITION_FORMATION_WITH_SPECIFIED_SOURCE ( 'LIBOVOLNÝ', '', #102, .NOT_KNOWN. ) ;
#203 = VERTEX_POINT ( 'NONE', #357 ) ;
#204 = VERTEX_POINT ( 'NONE', #46 ) ;
#205 = CONICAL_SURFACE ( 'NONE', #44, 58.99999999999998579, 0.7853981633974415066 ) ;
#206 = EDGE_LOOP ( 'NONE', ( #35, #142, #323, #63 ) ) ;
#207 = CIRCLE ( 'NONE', #30, 5.499999999999998224 ) ;
#208 = ORIENTED_EDGE ( 'NONE', *, *, #268, .F. ) ;
#209 = DIRECTION ( 'NONE',  ( -1.000000000000000000, 0.000000000000000000, 0.000000000000000000 ) ) ;
#210 = VECTOR ( 'NONE', #135, 1000.000000000000000 ) ;
#211 = FACE_OUTER_BOUND ( 'NONE', #4, .T. ) ;
#212 = DIRECTION ( 'NONE',  ( 0.000000000000000000, 0.000000000000000000, 1.000000000000000000 ) ) ;
#213 = ADVANCED_FACE ( 'NONE', ( #369 ), #218, .F. ) ;
#214 = EDGE_CURVE ( 'NONE', #34, #313, #76, .T. ) ;
#215 = DIRECTION ( 'NONE',  ( -0.7071067811865426878, 0.000000000000000000, -0.7071067811865524577 ) ) ;
#216 = CARTESIAN_POINT ( 'NONE',  ( -43.49999999999999289, 6.938893903907227589E-15, 6.000000000000000000 ) ) ;
#217 = CARTESIAN_POINT ( 'NONE',  ( -43.49999999999999289, 6.938893903907227589E-15, 0.000000000000000000 ) ) ;
#218 = CYLINDRICAL_SURFACE ( 'NONE', #194, 5.499999999999998224 ) ;
#219 = CARTESIAN_POINT ( 'NONE',  ( -60.00000000000000000, 0.000000000000000000, 6.000000000000000000 ) ) ;
#220 = DIRECTION ( 'NONE',  ( 1.000000000000000000, 0.000000000000000000, 0.000000000000000000 ) ) ;
#221 = PERSON_AND_ORGANIZATION_ROLE ( 'creator' ) ;
#222 = ORIENTED_EDGE ( 'NONE', *, *, #335, .T. ) ;
#223 = ORIENTED_EDGE ( 'NONE', *, *, #228, .T. ) ;
#224 = CONICAL_SURFACE ( 'NONE', #15, 58.99999999999998579, 0.7853981633974415066 ) ;
#225 = AXIS2_PLACEMENT_3D ( 'NONE', #130, #273, #105 ) ;
#226 = ORIENTED_EDGE ( 'NONE', *, *, #5, .F. ) ;
#227 = ORIENTED_EDGE ( 'NONE', *, *, #364, .T. ) ;
#228 = EDGE_CURVE ( 'NONE', #146, #37, #330, .T. ) ;
#229 = APPROVAL_STATUS ( 'not_yet_approved' ) ;
#230 = DATE_AND_TIME ( #83, #114 ) ;
#231 = ADVANCED_FACE ( 'NONE', ( #276 ), #224, .T. ) ;
#232 = EDGE_LOOP ( 'NONE', ( #124, #90, #100, #356 ) ) ;
#233 = AXIS2_PLACEMENT_3D ( 'NONE', #247, #52, #308 ) ;
#234 = AXIS2_PLACEMENT_3D ( 'NONE', #107, #212, #246 ) ;
#235 = ORIENTED_EDGE ( 'NONE', *, *, #355, .F. ) ;
#236 = CARTESIAN_POINT ( 'NONE',  ( 0.000000000000000000, 0.000000000000000000, 4.999999999999971578 ) ) ;
#237 = VERTEX_POINT ( 'NONE', #169 ) ;
#238 = ORIENTED_EDGE ( 'NONE', *, *, #228, .F. ) ;
#239 = CC_DESIGN_APPROVAL ( #299, ( #183 ) ) ;
#240 = DIRECTION ( 'NONE',  ( 1.000000000000000000, 0.000000000000000000, 0.000000000000000000 ) ) ;
#241 = CARTESIAN_POINT ( 'NONE',  ( 43.50000000000000711, 1.759332105648919889E-14, 6.000000000000000000 ) ) ;
#242 = DIRECTION ( 'NONE',  ( 0.000000000000000000, 0.000000000000000000, 1.000000000000000000 ) ) ;
#243 = CIRCLE ( 'NONE', #298, 5.499999999999998224 ) ;
#244 = VERTEX_POINT ( 'NONE', #344 ) ;
#245 = CIRCLE ( 'NONE', #162, 5.499999999999998224 ) ;
#246 = DIRECTION ( 'NONE',  ( 1.000000000000000000, 0.000000000000000000, -0.000000000000000000 ) ) ;
#247 = CARTESIAN_POINT ( 'NONE',  ( 0.000000000000000000, 0.000000000000000000, 6.000000000000000000 ) ) ;
#248 = CIRCLE ( 'NONE', #295, 5.499999999999998224 ) ;
#249 = CARTESIAN_POINT ( 'NONE',  ( -43.49999999999999289, 6.938893903907227589E-15, 6.000000000000000000 ) ) ;
#250 = DIRECTION ( 'NONE',  ( -0.000000000000000000, -0.000000000000000000, -1.000000000000000000 ) ) ;
#251 = DIRECTION ( 'NONE',  ( -1.000000000000000000, 0.000000000000000000, 0.000000000000000000 ) ) ;
#252 = APPROVAL_DATE_TIME ( #285, #125 ) ;
#253 = ORIENTED_EDGE ( 'NONE', *, *, #201, .T. ) ;
#254 = PRODUCT_RELATED_PRODUCT_CATEGORY ( 'detail', '', ( #102 ) ) ;
#255 = APPROVAL_DATE_TIME ( #346, #299 ) ;
#256 = CC_DESIGN_DATE_AND_TIME_ASSIGNMENT ( #144, #261, ( #183 ) ) ;
#257 = COORDINATED_UNIVERSAL_TIME_OFFSET ( 1, 0, .AHEAD. ) ;
#258 = EDGE_CURVE ( 'NONE', #203, #244, #85, .T. ) ;
#259 = PERSON_AND_ORGANIZATION_ROLE ( 'classification_officer' ) ;
#260 = ORIENTED_EDGE ( 'NONE', *, *, #29, .F. ) ;
#261 = DATE_TIME_ROLE ( 'creation_date' ) ;
#262 = ORIENTED_EDGE ( 'NONE', *, *, #268, .T. ) ;
#263 = ORIENTED_EDGE ( 'NONE', *, *, #187, .F. ) ;
#264 = EDGE_LOOP ( 'NONE', ( #123, #120, #6, #176 ) ) ;
#265 = ORIENTED_EDGE ( 'NONE', *, *, #339, .F. ) ;
#266 = ADVANCED_FACE ( 'NONE', ( #366 ), #363, .T. ) ;
#267 = FACE_OUTER_BOUND ( 'NONE', #232, .T. ) ;
#268 = EDGE_CURVE ( 'NONE', #296, #204, #7, .T. ) ;
#269 = FACE_OUTER_BOUND ( 'NONE', #264, .T. ) ;
#270 = FACE_BOUND ( 'NONE', #9, .T. ) ;
#271 = DIRECTION ( 'NONE',  ( -1.000000000000000000, 0.000000000000000000, 0.000000000000000000 ) ) ;
#272 = AXIS2_PLACEMENT_3D ( 'NONE', #332, #283, #198 ) ;
#273 = DIRECTION ( 'NONE',  ( 0.000000000000000000, 0.000000000000000000, 1.000000000000000000 ) ) ;
#274 = FACE_BOUND ( 'NONE', #352, .T. ) ;
#275 = CARTESIAN_POINT ( 'NONE',  ( 43.50000000000000711, 1.759332105648919889E-14, 6.000000000000000000 ) ) ;
#276 = FACE_OUTER_BOUND ( 'NONE', #96, .T. ) ;
#277 = PRODUCT_DEFINITION_SHAPE ( 'NONE', 'NONE',  #183 ) ;
#278 = CARTESIAN_POINT ( 'NONE',  ( 0.000000000000000000, 0.000000000000000000, 0.000000000000000000 ) ) ;
#279 = PLANE ( 'NONE',  #234 ) ;
#280 = CIRCLE ( 'NONE', #53, 5.499999999999998224 ) ;
#281 = VECTOR ( 'NONE', #75, 1000.000000000000000 ) ;
#282 = DIRECTION ( 'NONE',  ( -1.000000000000000000, 0.000000000000000000, 0.000000000000000000 ) ) ;
#283 = DIRECTION ( 'NONE',  ( 0.000000000000000000, 0.000000000000000000, 1.000000000000000000 ) ) ;
#284 = AXIS2_PLACEMENT_3D ( 'NONE', #236, #354, #291 ) ;
#285 = DATE_AND_TIME ( #200, #304 ) ;
#286 = EDGE_CURVE ( 'NONE', #204, #296, #359, .T. ) ;
#287 = EDGE_LOOP ( 'NONE', ( #253, #222 ) ) ;
#288 = EDGE_CURVE ( 'NONE', #37, #312, #306, .T. ) ;
#289 = VERTEX_POINT ( 'NONE', #309 ) ;
#290 = APPROVAL_STATUS ( 'not_yet_approved' ) ;
#291 = DIRECTION ( 'NONE',  ( 1.000000000000000000, 0.000000000000000000, 0.000000000000000000 ) ) ;
#292 = SHAPE_DEFINITION_REPRESENTATION ( #277, #191 ) ;
#293 = ORIENTED_EDGE ( 'NONE', *, *, #286, .T. ) ;
#294 = ORIENTED_EDGE ( 'NONE', *, *, #99, .T. ) ;
#295 = AXIS2_PLACEMENT_3D ( 'NONE', #275, #16, #157 ) ;
#296 = VERTEX_POINT ( 'NONE', #164 ) ;
#297 = APPROVAL ( #341, 'NEURÈENÝ' ) ;
#298 = AXIS2_PLACEMENT_3D ( 'NONE', #241, #12, #129 ) ;
#299 = APPROVAL ( #229, 'NEURÈENÝ' ) ;
#300 = DIRECTION ( 'NONE',  ( 1.000000000000000000, 0.000000000000000000, 0.000000000000000000 ) ) ;
#301 = EDGE_CURVE ( 'NONE', #98, #203, #248, .T. ) ;
#302 = AXIS2_PLACEMENT_3D ( 'NONE', #278, #155, #165 ) ;
#303 = DIRECTION ( 'NONE',  ( 0.000000000000000000, 0.000000000000000000, 1.000000000000000000 ) ) ;
#304 = LOCAL_TIME ( 15, 1, 2.000000000000000000, #372 ) ;
#305 = DIRECTION ( 'NONE',  ( -0.000000000000000000, -0.000000000000000000, -1.000000000000000000 ) ) ;
#306 = LINE ( 'NONE', #49, #281 ) ;
#307 = VECTOR ( 'NONE', #215, 1000.000000000000000 ) ;
#308 = DIRECTION ( 'NONE',  ( -1.000000000000000000, 0.000000000000000000, 0.000000000000000000 ) ) ;
#309 = CARTESIAN_POINT ( 'NONE',  ( -60.00000000000000000, 0.000000000000000000, 0.000000000000000000 ) ) ;
#310 = CARTESIAN_POINT ( 'NONE',  ( 0.000000000000000000, 0.000000000000000000, 4.999999999999971578 ) ) ;
#311 = DIRECTION ( 'NONE',  ( 0.7071067811865426878, 8.659560562354874926E-17, -0.7071067811865524577 ) ) ;
#312 = VERTEX_POINT ( 'NONE', #109 ) ;
#313 = VERTEX_POINT ( 'NONE', #41 ) ;
#314 = DIRECTION ( 'NONE',  ( -1.000000000000000000, 0.000000000000000000, 0.000000000000000000 ) ) ;
#315 = PERSON_AND_ORGANIZATION ( #24, #345 ) ;
#316 = AXIS2_PLACEMENT_3D ( 'NONE', #161, #22, #331 ) ;
#317 = APPROVAL_ROLE ( '' ) ;
#318 = DIRECTION ( 'NONE',  ( 0.000000000000000000, 0.000000000000000000, -1.000000000000000000 ) ) ;
#319 = MECHANICAL_CONTEXT ( 'NONE', #367, 'mechanical' ) ;
#320 = CALENDAR_DATE ( 2023, 27, 1 ) ;
#321 = APPROVAL_DATE_TIME ( #62, #297 ) ;
#322 = EDGE_LOOP ( 'NONE', ( #294, #145, #263, #64 ) ) ;
#323 = ORIENTED_EDGE ( 'NONE', *, *, #127, .T. ) ;
#324 = CC_DESIGN_DATE_AND_TIME_ASSIGNMENT ( #230, #351, ( #47 ) ) ;
#325 = ADVANCED_FACE ( 'NONE', ( #156, #360, #270 ), #279, .T. ) ;
#326 = ORIENTED_EDGE ( 'NONE', *, *, #19, .T. ) ;
#327 = EDGE_CURVE ( 'NONE', #204, #174, #134, .T. ) ;
#328 = ORIENTED_EDGE ( 'NONE', *, *, #99, .F. ) ;
#329 = DIRECTION ( 'NONE',  ( -0.000000000000000000, -0.000000000000000000, -1.000000000000000000 ) ) ;
#330 = CIRCLE ( 'NONE', #147, 5.499999999999998224 ) ;
#331 = DIRECTION ( 'NONE',  ( 1.000000000000000000, 0.000000000000000000, 0.000000000000000000 ) ) ;
#332 = CARTESIAN_POINT ( 'NONE',  ( 0.000000000000000000, 0.000000000000000000, 0.000000000000000000 ) ) ;
#333 = CYLINDRICAL_SURFACE ( 'NONE', #84, 5.499999999999998224 ) ;
#334 = DIRECTION ( 'NONE',  ( 0.000000000000000000, 0.000000000000000000, 1.000000000000000000 ) ) ;
#335 = EDGE_CURVE ( 'NONE', #312, #237, #207, .T. ) ;
#336 = CARTESIAN_POINT ( 'NONE',  ( 60.00000000000000000, 7.347880794884118356E-15, 6.000000000000000000 ) ) ;
#337 = CYLINDRICAL_SURFACE ( 'NONE', #131, 5.499999999999998224 ) ;
#338 = VECTOR ( 'NONE', #40, 1000.000000000000000 ) ;
#339 = EDGE_CURVE ( 'NONE', #289, #313, #133, .T. ) ;
#340 = DIRECTION ( 'NONE',  ( -0.000000000000000000, -0.000000000000000000, -1.000000000000000000 ) ) ;
#341 = APPROVAL_STATUS ( 'not_yet_approved' ) ;
#342 = DIRECTION ( 'NONE',  ( 0.000000000000000000, 0.000000000000000000, 1.000000000000000000 ) ) ;
#343 = SECURITY_CLASSIFICATION_LEVEL ( 'unclassified' ) ;
#344 = CARTESIAN_POINT ( 'NONE',  ( 38.00000000000000711, 1.759332105648919889E-14, 0.000000000000000000 ) ) ;
#345 = ORGANIZATION ( 'NEURÈENÝ', 'NEURÈENÝ', '' ) ;
#346 = DATE_AND_TIME ( #320, #166 ) ;
#347 = ORIENTED_EDGE ( 'NONE', *, *, #339, .T. ) ;
#348 = ORIENTED_EDGE ( 'NONE', *, *, #214, .F. ) ;
#349 = COORDINATED_UNIVERSAL_TIME_OFFSET ( 1, 0, .AHEAD. ) ;
#350 = CIRCLE ( 'NONE', #82, 60.00000000000000000 ) ;
#351 = DATE_TIME_ROLE ( 'classification_date' ) ;
#352 = EDGE_LOOP ( 'NONE', ( #65, #326 ) ) ;
#353 = EDGE_LOOP ( 'NONE', ( #265, #235 ) ) ;
#354 = DIRECTION ( 'NONE',  ( 0.000000000000000000, 0.000000000000000000, -1.000000000000000000 ) ) ;
#355 = EDGE_CURVE ( 'NONE', #313, #289, #186, .T. ) ;
#356 = ORIENTED_EDGE ( 'NONE', *, *, #92, .F. ) ;
#357 = CARTESIAN_POINT ( 'NONE',  ( 38.00000000000000711, 1.759332105648919889E-14, 6.000000000000000000 ) ) ;
#358 = CARTESIAN_POINT ( 'NONE',  ( -37.99999999999999289, 7.612449643438271692E-15, 6.000000000000000000 ) ) ;
#359 = CIRCLE ( 'NONE', #149, 58.99999999999998579 ) ;
#360 = FACE_BOUND ( 'NONE', #170, .T. ) ;
#361 = CARTESIAN_POINT ( 'NONE',  ( 0.000000000000000000, 0.000000000000000000, 0.000000000000000000 ) ) ;
#362 = CC_DESIGN_PERSON_AND_ORGANIZATION_ASSIGNMENT ( #113, #116, ( #102 ) ) ;
#363 = CYLINDRICAL_SURFACE ( 'NONE', #104, 60.00000000000000000 ) ;
#364 = EDGE_CURVE ( 'NONE', #296, #34, #72, .T. ) ;
#365 = CARTESIAN_POINT ( 'NONE',  ( -43.49999999999999289, 6.938893903907227589E-15, 6.000000000000000000 ) ) ;
#366 = FACE_OUTER_BOUND ( 'NONE', #151, .T. ) ;
#367 = APPLICATION_CONTEXT ( 'configuration controlled 3d designs of mechanical parts and assemblies' ) ;
#368 = DIRECTION ( 'NONE',  ( 1.000000000000000000, 0.000000000000000000, 0.000000000000000000 ) ) ;
#369 = FACE_OUTER_BOUND ( 'NONE', #322, .T. ) ;
#370 = CARTESIAN_POINT ( 'NONE',  ( -48.99999999999998579, 6.938893903907227589E-15, 6.000000000000000000 ) ) ;
#371 = PERSON_AND_ORGANIZATION_ROLE ( 'design_supplier' ) ;
#372 = COORDINATED_UNIVERSAL_TIME_OFFSET ( 1, 0, .AHEAD. ) ;
#373 = ORIENTED_EDGE ( 'NONE', *, *, #5, .T. ) ;
ENDSEC;
END-ISO-10303-21;
