ISO-10303-21;
HEADER;
FILE_DESCRIPTION (( 'STEP AP203' ),
    '1' );
FILE_NAME ('A_013-45.STEP',
    '2021-11-15T08:18:46',
    ( '' ),
    ( '' ),
    'SwSTEP 2.0',
    'SolidWorks 2019',
    '' );
FILE_SCHEMA (( 'CONFIG_CONTROL_DESIGN' ));
ENDSEC;

DATA;
#1 = ORIENTED_EDGE ( 'NONE', *, *, #209, .F. ) ;
#2 = PRODUCT_RELATED_PRODUCT_CATEGORY ( 'detail', '', ( #90 ) ) ;
#3 = ORIENTED_EDGE ( 'NONE', *, *, #94, .T. ) ;
#4 = APPROVAL_PERSON_ORGANIZATION ( #65, #179, #152 ) ;
#5 = CARTESIAN_POINT ( 'NONE',  ( 9.999999999999994671, 1.224646799147352665E-15, 0.000000000000000000 ) ) ;
#6 = APPLICATION_CONTEXT ( 'configuration controlled 3d designs of mechanical parts and assemblies' ) ;
#7 = LINE ( 'NONE', #104, #63 ) ;
#8 = CARTESIAN_POINT ( 'NONE',  ( 0.000000000000000000, 0.000000000000000000, 50.00000000000000000 ) ) ;
#9 = CC_DESIGN_PERSON_AND_ORGANIZATION_ASSIGNMENT ( #60, #95, ( #78 ) ) ;
#10 = DIRECTION ( 'NONE',  ( 0.000000000000000000, 0.000000000000000000, 1.000000000000000000 ) ) ;
#11 = VECTOR ( 'NONE', #196, 1000.000000000000000 ) ;
#12 = CARTESIAN_POINT ( 'NONE',  ( 0.000000000000000000, 0.000000000000000000, 50.00000000000000000 ) ) ;
#13 = PERSON_AND_ORGANIZATION_ROLE ( 'design_owner' ) ;
#14 =( NAMED_UNIT ( * ) SI_UNIT ( $, .STERADIAN. ) SOLID_ANGLE_UNIT ( ) );
#15 = VECTOR ( 'NONE', #238, 1000.000000000000000 ) ;
#16 = PERSON_AND_ORGANIZATION_ROLE ( 'creator' ) ;
#17 = CIRCLE ( 'NONE', #103, 8.500000000000000000 ) ;
#18 = APPROVAL_STATUS ( 'not_yet_approved' ) ;
#19 = CARTESIAN_POINT ( 'NONE',  ( 0.000000000000000000, 0.000000000000000000, 0.000000000000000000 ) ) ;
#20 = VERTEX_POINT ( 'NONE', #230 ) ;
#21 = AXIS2_PLACEMENT_3D ( 'NONE', #118, #195, #66 ) ;
#22 = ORIENTED_EDGE ( 'NONE', *, *, #99, .T. ) ;
#23 = EDGE_CURVE ( 'NONE', #246, #172, #174, .T. ) ;
#24 = AXIS2_PLACEMENT_3D ( 'NONE', #170, #249, #154 ) ;
#25 = COORDINATED_UNIVERSAL_TIME_OFFSET ( 1, 0, .AHEAD. ) ;
#26 = SHAPE_DEFINITION_REPRESENTATION ( #134, #207 ) ;
#27 = ORIENTED_EDGE ( 'NONE', *, *, #23, .F. ) ;
#28 = AXIS2_PLACEMENT_3D ( 'NONE', #49, #54, #240 ) ;
#29 = CARTESIAN_POINT ( 'NONE',  ( 0.000000000000000000, 0.000000000000000000, 45.00000000000000000 ) ) ;
#30 = FACE_BOUND ( 'NONE', #229, .T. ) ;
#31 = CIRCLE ( 'NONE', #117, 8.500000000000000000 ) ;
#32 = CARTESIAN_POINT ( 'NONE',  ( 8.500000000000000000, 1.040949779275250140E-15, 50.00000000000000000 ) ) ;
#33 = CARTESIAN_POINT ( 'NONE',  ( -9.999999999999994671, 0.000000000000000000, 0.000000000000000000 ) ) ;
#34 = DIRECTION ( 'NONE',  ( -1.000000000000000000, 0.000000000000000000, 0.000000000000000000 ) ) ;
#35 =( GEOMETRIC_REPRESENTATION_CONTEXT ( 3 ) GLOBAL_UNCERTAINTY_ASSIGNED_CONTEXT ( ( #185 ) ) GLOBAL_UNIT_ASSIGNED_CONTEXT ( ( #180, #239, #14 ) ) REPRESENTATION_CONTEXT ( 'NONE', 'WORKASPACE' ) );
#36 = DESIGN_CONTEXT ( 'detailed design', #6, 'design' ) ;
#37 = PERSON_AND_ORGANIZATION ( #110, #210 ) ;
#38 = CALENDAR_DATE ( 2021, 15, 11 ) ;
#39 = ADVANCED_FACE ( 'NONE', ( #175 ), #64, .T. ) ;
#40 = DIRECTION ( 'NONE',  ( 0.000000000000000000, 0.000000000000000000, 1.000000000000000000 ) ) ;
#41 = ORIENTED_EDGE ( 'NONE', *, *, #244, .F. ) ;
#42 = CARTESIAN_POINT ( 'NONE',  ( 0.000000000000000000, 0.000000000000000000, 50.00000000000000000 ) ) ;
#43 = EDGE_LOOP ( 'NONE', ( #72, #131, #3, #58 ) ) ;
#44 = CALENDAR_DATE ( 2021, 15, 11 ) ;
#45 = EDGE_CURVE ( 'NONE', #172, #246, #17, .T. ) ;
#46 = VERTEX_POINT ( 'NONE', #61 ) ;
#47 = ORIENTED_EDGE ( 'NONE', *, *, #225, .F. ) ;
#48 = LOCAL_TIME ( 9, 18, 46.00000000000000000, #202 ) ;
#49 = CARTESIAN_POINT ( 'NONE',  ( -9.999999999999994671, -15.99339178917536231, 45.00000000000000000 ) ) ;
#50 = FACE_OUTER_BOUND ( 'NONE', #149, .T. ) ;
#51 = CARTESIAN_POINT ( 'NONE',  ( 0.000000000000000000, 0.000000000000000000, 0.000000000000000000 ) ) ;
#52 = CC_DESIGN_PERSON_AND_ORGANIZATION_ASSIGNMENT ( #73, #13, ( #90 ) ) ;
#53 = CYLINDRICAL_SURFACE ( 'NONE', #126, 8.500000000000000000 ) ;
#54 = DIRECTION ( 'NONE',  ( 0.000000000000000000, 0.000000000000000000, -1.000000000000000000 ) ) ;
#55 = APPROVAL_ROLE ( '' ) ;
#56 = ORIENTED_EDGE ( 'NONE', *, *, #176, .F. ) ;
#57 = AXIS2_PLACEMENT_3D ( 'NONE', #8, #122, #199 ) ;
#58 = ORIENTED_EDGE ( 'NONE', *, *, #99, .F. ) ;
#59 = DATE_AND_TIME ( #224, #151 ) ;
#60 = PERSON_AND_ORGANIZATION ( #110, #210 ) ;
#61 = CARTESIAN_POINT ( 'NONE',  ( 9.999999999999994671, 1.224646799147352665E-15, 45.00000000000000000 ) ) ;
#62 = EDGE_LOOP ( 'NONE', ( #56, #167, #243, #97 ) ) ;
#63 = VECTOR ( 'NONE', #83, 1000.000000000000000 ) ;
#64 = CYLINDRICAL_SURFACE ( 'NONE', #157, 9.999999999999994671 ) ;
#65 = PERSON_AND_ORGANIZATION ( #110, #210 ) ;
#66 = DIRECTION ( 'NONE',  ( -1.000000000000000000, 0.000000000000000000, 0.000000000000000000 ) ) ;
#67 = EDGE_CURVE ( 'NONE', #153, #20, #128, .T. ) ;
#68 = CARTESIAN_POINT ( 'NONE',  ( -8.500000000000000000, 0.000000000000000000, 0.000000000000000000 ) ) ;
#69 = LINE ( 'NONE', #120, #156 ) ;
#70 = MECHANICAL_CONTEXT ( 'NONE', #219, 'mechanical' ) ;
#71 = ORIENTED_EDGE ( 'NONE', *, *, #218, .T. ) ;
#72 = ORIENTED_EDGE ( 'NONE', *, *, #209, .T. ) ;
#73 = PERSON_AND_ORGANIZATION ( #110, #210 ) ;
#74 = ORIENTED_EDGE ( 'NONE', *, *, #218, .F. ) ;
#75 = ORIENTED_EDGE ( 'NONE', *, *, #23, .T. ) ;
#76 = ORIENTED_EDGE ( 'NONE', *, *, #45, .T. ) ;
#77 = EDGE_LOOP ( 'NONE', ( #192, #208, #22, #101 ) ) ;
#78 = PRODUCT_DEFINITION_FORMATION_WITH_SPECIFIED_SOURCE ( 'LIBOVOLNÝ', '', #90, .NOT_KNOWN. ) ;
#79 = DIRECTION ( 'NONE',  ( -1.000000000000000000, 0.000000000000000000, 0.000000000000000000 ) ) ;
#80 = ADVANCED_FACE ( 'NONE', ( #231 ), #116, .F. ) ;
#81 = DIRECTION ( 'NONE',  ( -1.000000000000000000, 0.000000000000000000, 0.000000000000000000 ) ) ;
#82 = APPROVAL ( #165, 'NEURÈENÝ' ) ;
#83 = DIRECTION ( 'NONE',  ( -0.000000000000000000, -0.000000000000000000, -1.000000000000000000 ) ) ;
#84 = CIRCLE ( 'NONE', #236, 9.999999999999994671 ) ;
#85 = CARTESIAN_POINT ( 'NONE',  ( 0.000000000000000000, 0.000000000000000000, 45.00000000000000000 ) ) ;
#86 = LINE ( 'NONE', #32, #11 ) ;
#87 = CC_DESIGN_APPROVAL ( #145, ( #241 ) ) ;
#88 = FACE_OUTER_BOUND ( 'NONE', #112, .T. ) ;
#89 = CC_DESIGN_PERSON_AND_ORGANIZATION_ASSIGNMENT ( #114, #148, ( #113 ) ) ;
#90 = PRODUCT ( 'A_013-45', 'A_013-45', '', ( #70 ) ) ;
#91 = PERSON_AND_ORGANIZATION ( #110, #210 ) ;
#92 = DATE_AND_TIME ( #147, #188 ) ;
#93 = APPROVAL_PERSON_ORGANIZATION ( #37, #82, #227 ) ;
#94 = EDGE_CURVE ( 'NONE', #135, #187, #84, .T. ) ;
#95 = PERSON_AND_ORGANIZATION_ROLE ( 'design_supplier' ) ;
#96 = ORIENTED_EDGE ( 'NONE', *, *, #176, .T. ) ;
#97 = ORIENTED_EDGE ( 'NONE', *, *, #45, .F. ) ;
#98 = DIRECTION ( 'NONE',  ( 1.000000000000000000, 0.000000000000000000, 0.000000000000000000 ) ) ;
#99 = EDGE_CURVE ( 'NONE', #169, #187, #181, .T. ) ;
#100 = AXIS2_PLACEMENT_3D ( 'NONE', #108, #40, #130 ) ;
#101 = ORIENTED_EDGE ( 'NONE', *, *, #212, .T. ) ;
#102 = APPROVAL_DATE_TIME ( #191, #179 ) ;
#103 = AXIS2_PLACEMENT_3D ( 'NONE', #19, #234, #98 ) ;
#104 = CARTESIAN_POINT ( 'NONE',  ( -8.500000000000000000, 0.000000000000000000, 50.00000000000000000 ) ) ;
#105 = DIRECTION ( 'NONE',  ( 1.000000000000000000, 0.000000000000000000, 0.000000000000000000 ) ) ;
#106 = DIRECTION ( 'NONE',  ( -1.000000000000000000, 0.000000000000000000, 0.000000000000000000 ) ) ;
#107 = LOCAL_TIME ( 9, 18, 46.00000000000000000, #25 ) ;
#108 = CARTESIAN_POINT ( 'NONE',  ( 0.000000000000000000, 0.000000000000000000, 0.000000000000000000 ) ) ;
#109 = ADVANCED_FACE ( 'NONE', ( #88, #177 ), #160, .F. ) ;
#110 = PERSON ( 'NEURÈENÝ', 'NEURÈENÝ', 'NEURÈENÝ', ('NEURÈENÝ'), ('NEURÈENÝ'), ('NEURÈENÝ') ) ;
#111 = APPROVAL_DATE_TIME ( #59, #82 ) ;
#112 = EDGE_LOOP ( 'NONE', ( #132, #247 ) ) ;
#113 = SECURITY_CLASSIFICATION ( '', '', #166 ) ;
#114 = PERSON_AND_ORGANIZATION ( #110, #210 ) ;
#115 = DIRECTION ( 'NONE',  ( -0.000000000000000000, -0.000000000000000000, -1.000000000000000000 ) ) ;
#116 = CYLINDRICAL_SURFACE ( 'NONE', #223, 8.500000000000000000 ) ;
#117 = AXIS2_PLACEMENT_3D ( 'NONE', #29, #178, #106 ) ;
#118 = CARTESIAN_POINT ( 'NONE',  ( 0.000000000000000000, 0.000000000000000000, 45.00000000000000000 ) ) ;
#119 = DIRECTION ( 'NONE',  ( 0.000000000000000000, 0.000000000000000000, 1.000000000000000000 ) ) ;
#120 = CARTESIAN_POINT ( 'NONE',  ( 9.999999999999994671, 1.224646799147352665E-15, 50.00000000000000000 ) ) ;
#121 = CIRCLE ( 'NONE', #140, 9.999999999999994671 ) ;
#122 = DIRECTION ( 'NONE',  ( -0.000000000000000000, -0.000000000000000000, -1.000000000000000000 ) ) ;
#123 = ADVANCED_FACE ( 'NONE', ( #213 ), #146, .T. ) ;
#124 = DIRECTION ( 'NONE',  ( -0.000000000000000000, -0.000000000000000000, -1.000000000000000000 ) ) ;
#125 = APPROVAL_DATE_TIME ( #92, #145 ) ;
#126 = AXIS2_PLACEMENT_3D ( 'NONE', #12, #141, #81 ) ;
#127 = CC_DESIGN_PERSON_AND_ORGANIZATION_ASSIGNMENT ( #91, #221, ( #241 ) ) ;
#128 = CIRCLE ( 'NONE', #24, 8.500000000000000000 ) ;
#129 = COORDINATED_UNIVERSAL_TIME_OFFSET ( 1, 0, .AHEAD. ) ;
#130 = DIRECTION ( 'NONE',  ( 1.000000000000000000, 0.000000000000000000, 0.000000000000000000 ) ) ;
#131 = ORIENTED_EDGE ( 'NONE', *, *, #171, .T. ) ;
#132 = ORIENTED_EDGE ( 'NONE', *, *, #212, .F. ) ;
#133 = ADVANCED_FACE ( 'NONE', ( #143 ), #53, .F. ) ;
#134 = PRODUCT_DEFINITION_SHAPE ( 'NONE', 'NONE',  #241 ) ;
#135 = VERTEX_POINT ( 'NONE', #5 ) ;
#136 = DATE_TIME_ROLE ( 'classification_date' ) ;
#137 = DIRECTION ( 'NONE',  ( 1.000000000000000000, 0.000000000000000000, 0.000000000000000000 ) ) ;
#138 = ADVANCED_FACE ( 'NONE', ( #30, #50 ), #159, .F. ) ;
#139 = DATE_AND_TIME ( #38, #48 ) ;
#140 = AXIS2_PLACEMENT_3D ( 'NONE', #85, #161, #242 ) ;
#141 = DIRECTION ( 'NONE',  ( -0.000000000000000000, -0.000000000000000000, -1.000000000000000000 ) ) ;
#142 = DIRECTION ( 'NONE',  ( 1.000000000000000000, 0.000000000000000000, -0.000000000000000000 ) ) ;
#143 = FACE_OUTER_BOUND ( 'NONE', #62, .T. ) ;
#144 = DIRECTION ( 'NONE',  ( -0.000000000000000000, -0.000000000000000000, -1.000000000000000000 ) ) ;
#145 = APPROVAL ( #18, 'NEURÈENÝ' ) ;
#146 = CYLINDRICAL_SURFACE ( 'NONE', #57, 9.999999999999994671 ) ;
#147 = CALENDAR_DATE ( 2021, 15, 11 ) ;
#148 = PERSON_AND_ORGANIZATION_ROLE ( 'classification_officer' ) ;
#149 = EDGE_LOOP ( 'NONE', ( #1, #47 ) ) ;
#150 = CC_DESIGN_DATE_AND_TIME_ASSIGNMENT ( #139, #136, ( #113 ) ) ;
#151 = LOCAL_TIME ( 9, 18, 46.00000000000000000, #204 ) ;
#152 = APPROVAL_ROLE ( '' ) ;
#153 = VERTEX_POINT ( 'NONE', #198 ) ;
#154 = DIRECTION ( 'NONE',  ( -1.000000000000000000, 0.000000000000000000, 0.000000000000000000 ) ) ;
#155 = DIRECTION ( 'NONE',  ( 0.000000000000000000, 0.000000000000000000, 1.000000000000000000 ) ) ;
#156 = VECTOR ( 'NONE', #124, 1000.000000000000000 ) ;
#157 = AXIS2_PLACEMENT_3D ( 'NONE', #42, #115, #79 ) ;
#158 = AXIS2_PLACEMENT_3D ( 'NONE', #211, #10, #142 ) ;
#159 = PLANE ( 'NONE',  #28 ) ;
#160 = PLANE ( 'NONE',  #158 ) ;
#161 = DIRECTION ( 'NONE',  ( 0.000000000000000000, 0.000000000000000000, -1.000000000000000000 ) ) ;
#162 = DIRECTION ( 'NONE',  ( 0.000000000000000000, 0.000000000000000000, 1.000000000000000000 ) ) ;
#163 = AXIS2_PLACEMENT_3D ( 'NONE', #164, #119, #105 ) ;
#164 = CARTESIAN_POINT ( 'NONE',  ( 0.000000000000000000, 0.000000000000000000, 0.000000000000000000 ) ) ;
#165 = APPROVAL_STATUS ( 'not_yet_approved' ) ;
#166 = SECURITY_CLASSIFICATION_LEVEL ( 'unclassified' ) ;
#167 = ORIENTED_EDGE ( 'NONE', *, *, #67, .F. ) ;
#168 = CC_DESIGN_SECURITY_CLASSIFICATION ( #113, ( #78 ) ) ;
#169 = VERTEX_POINT ( 'NONE', #237 ) ;
#170 = CARTESIAN_POINT ( 'NONE',  ( 0.000000000000000000, 0.000000000000000000, 45.00000000000000000 ) ) ;
#171 = EDGE_CURVE ( 'NONE', #46, #135, #69, .T. ) ;
#172 = VERTEX_POINT ( 'NONE', #197 ) ;
#173 = CIRCLE ( 'NONE', #21, 9.999999999999994671 ) ;
#174 = CIRCLE ( 'NONE', #203, 8.500000000000000000 ) ;
#175 = FACE_OUTER_BOUND ( 'NONE', #43, .T. ) ;
#176 = EDGE_CURVE ( 'NONE', #20, #172, #86, .T. ) ;
#177 = FACE_BOUND ( 'NONE', #222, .T. ) ;
#178 = DIRECTION ( 'NONE',  ( 0.000000000000000000, 0.000000000000000000, -1.000000000000000000 ) ) ;
#179 = APPROVAL ( #206, 'NEURÈENÝ' ) ;
#180 =( LENGTH_UNIT ( ) NAMED_UNIT ( * ) SI_UNIT ( .MILLI., .METRE. ) );
#181 = LINE ( 'NONE', #216, #15 ) ;
#182 = APPROVAL_PERSON_ORGANIZATION ( #184, #145, #55 ) ;
#183 = APPLICATION_PROTOCOL_DEFINITION ( 'international standard', 'config_control_design', 1994, #6 ) ;
#184 = PERSON_AND_ORGANIZATION ( #110, #210 ) ;
#185 = UNCERTAINTY_MEASURE_WITH_UNIT (LENGTH_MEASURE( 1.000000000000000082E-05 ), #180, 'distance_accuracy_value', 'NONE');
#186 = PERSON_AND_ORGANIZATION ( #110, #210 ) ;
#187 = VERTEX_POINT ( 'NONE', #33 ) ;
#188 = LOCAL_TIME ( 9, 18, 46.00000000000000000, #200 ) ;
#189 = DATE_TIME_ROLE ( 'creation_date' ) ;
#190 = EDGE_LOOP ( 'NONE', ( #74, #96, #27, #41 ) ) ;
#191 = DATE_AND_TIME ( #44, #107 ) ;
#192 = ORIENTED_EDGE ( 'NONE', *, *, #171, .F. ) ;
#193 = CARTESIAN_POINT ( 'NONE',  ( 0.000000000000000000, 0.000000000000000000, 50.00000000000000000 ) ) ;
#194 = CC_DESIGN_PERSON_AND_ORGANIZATION_ASSIGNMENT ( #186, #16, ( #78 ) ) ;
#195 = DIRECTION ( 'NONE',  ( 0.000000000000000000, 0.000000000000000000, -1.000000000000000000 ) ) ;
#196 = DIRECTION ( 'NONE',  ( -0.000000000000000000, -0.000000000000000000, -1.000000000000000000 ) ) ;
#197 = CARTESIAN_POINT ( 'NONE',  ( 8.500000000000000000, 1.040949779275250140E-15, 0.000000000000000000 ) ) ;
#198 = CARTESIAN_POINT ( 'NONE',  ( -8.500000000000000000, 0.000000000000000000, 45.00000000000000000 ) ) ;
#199 = DIRECTION ( 'NONE',  ( -1.000000000000000000, 0.000000000000000000, 0.000000000000000000 ) ) ;
#200 = COORDINATED_UNIVERSAL_TIME_OFFSET ( 1, 0, .AHEAD. ) ;
#201 = CC_DESIGN_DATE_AND_TIME_ASSIGNMENT ( #226, #189, ( #241 ) ) ;
#202 = COORDINATED_UNIVERSAL_TIME_OFFSET ( 1, 0, .AHEAD. ) ;
#203 = AXIS2_PLACEMENT_3D ( 'NONE', #232, #155, #137 ) ;
#204 = COORDINATED_UNIVERSAL_TIME_OFFSET ( 1, 0, .AHEAD. ) ;
#205 = ORIENTED_EDGE ( 'NONE', *, *, #67, .T. ) ;
#206 = APPROVAL_STATUS ( 'not_yet_approved' ) ;
#207 = ADVANCED_BREP_SHAPE_REPRESENTATION ( 'A_013-45', ( #235, #100 ), #35 ) ;
#208 = ORIENTED_EDGE ( 'NONE', *, *, #225, .T. ) ;
#209 = EDGE_CURVE ( 'NONE', #169, #46, #173, .T. ) ;
#210 = ORGANIZATION ( 'NEURÈENÝ', 'NEURÈENÝ', '' ) ;
#211 = CARTESIAN_POINT ( 'NONE',  ( 0.000000000000000000, 0.000000000000000000, 0.000000000000000000 ) ) ;
#212 = EDGE_CURVE ( 'NONE', #187, #135, #228, .T. ) ;
#213 = FACE_OUTER_BOUND ( 'NONE', #77, .T. ) ;
#214 = CC_DESIGN_APPROVAL ( #82, ( #78 ) ) ;
#215 = CLOSED_SHELL ( 'NONE', ( #80, #39, #109, #123, #133, #138 ) ) ;
#216 = CARTESIAN_POINT ( 'NONE',  ( -9.999999999999994671, 0.000000000000000000, 50.00000000000000000 ) ) ;
#217 = DIRECTION ( 'NONE',  ( 1.000000000000000000, 0.000000000000000000, 0.000000000000000000 ) ) ;
#218 = EDGE_CURVE ( 'NONE', #20, #153, #31, .T. ) ;
#219 = APPLICATION_CONTEXT ( 'configuration controlled 3d designs of mechanical parts and assemblies' ) ;
#220 = APPLICATION_PROTOCOL_DEFINITION ( 'international standard', 'config_control_design', 1994, #219 ) ;
#221 = PERSON_AND_ORGANIZATION_ROLE ( 'creator' ) ;
#222 = EDGE_LOOP ( 'NONE', ( #75, #76 ) ) ;
#223 = AXIS2_PLACEMENT_3D ( 'NONE', #193, #144, #34 ) ;
#224 = CALENDAR_DATE ( 2021, 15, 11 ) ;
#225 = EDGE_CURVE ( 'NONE', #46, #169, #121, .T. ) ;
#226 = DATE_AND_TIME ( #245, #233 ) ;
#227 = APPROVAL_ROLE ( '' ) ;
#228 = CIRCLE ( 'NONE', #163, 9.999999999999994671 ) ;
#229 = EDGE_LOOP ( 'NONE', ( #205, #71 ) ) ;
#230 = CARTESIAN_POINT ( 'NONE',  ( 8.500000000000000000, 1.040949779275250140E-15, 45.00000000000000000 ) ) ;
#231 = FACE_OUTER_BOUND ( 'NONE', #190, .T. ) ;
#232 = CARTESIAN_POINT ( 'NONE',  ( 0.000000000000000000, 0.000000000000000000, 0.000000000000000000 ) ) ;
#233 = LOCAL_TIME ( 9, 18, 46.00000000000000000, #129 ) ;
#234 = DIRECTION ( 'NONE',  ( 0.000000000000000000, 0.000000000000000000, 1.000000000000000000 ) ) ;
#235 = MANIFOLD_SOLID_BREP ( 'Odebrat vysunutím1', #215 ) ;
#236 = AXIS2_PLACEMENT_3D ( 'NONE', #51, #162, #217 ) ;
#237 = CARTESIAN_POINT ( 'NONE',  ( -9.999999999999994671, 0.000000000000000000, 45.00000000000000000 ) ) ;
#238 = DIRECTION ( 'NONE',  ( -0.000000000000000000, -0.000000000000000000, -1.000000000000000000 ) ) ;
#239 =( NAMED_UNIT ( * ) PLANE_ANGLE_UNIT ( ) SI_UNIT ( $, .RADIAN. ) );
#240 = DIRECTION ( 'NONE',  ( -1.000000000000000000, 0.000000000000000000, -0.000000000000000000 ) ) ;
#241 = PRODUCT_DEFINITION ( 'NEZNÁMÝ', '', #78, #36 ) ;
#242 = DIRECTION ( 'NONE',  ( -1.000000000000000000, 0.000000000000000000, 0.000000000000000000 ) ) ;
#243 = ORIENTED_EDGE ( 'NONE', *, *, #244, .T. ) ;
#244 = EDGE_CURVE ( 'NONE', #153, #246, #7, .T. ) ;
#245 = CALENDAR_DATE ( 2021, 15, 11 ) ;
#246 = VERTEX_POINT ( 'NONE', #68 ) ;
#247 = ORIENTED_EDGE ( 'NONE', *, *, #94, .F. ) ;
#248 = CC_DESIGN_APPROVAL ( #179, ( #113 ) ) ;
#249 = DIRECTION ( 'NONE',  ( 0.000000000000000000, 0.000000000000000000, -1.000000000000000000 ) ) ;
ENDSEC;
END-ISO-10303-21;
