ISO-10303-21;
HEADER;
FILE_DESCRIPTION (( 'STEP AP203' ),
    '1' );
FILE_NAME ('A-0742-plate.STEP',
    '2022-01-11T09:17:07',
    ( '' ),
    ( '' ),
    'SwSTEP 2.0',
    'SolidWorks 2019',
    '' );
FILE_SCHEMA (( 'CONFIG_CONTROL_DESIGN' ));
ENDSEC;

DATA;
#1 = APPROVAL ( #378, 'NEURÈENÝ' ) ;
#2 = DIRECTION ( 'NONE',  ( -1.000000000000000000, 0.000000000000000000, 0.000000000000000000 ) ) ;
#3 = CLOSED_SHELL ( 'NONE', ( #380, #317, #234, #274, #143, #267, #152, #359, #127, #146, #110, #176 ) ) ;
#4 = MECHANICAL_CONTEXT ( 'NONE', #259, 'mechanical' ) ;
#5 = CARTESIAN_POINT ( 'NONE',  ( 4.249999999999999112, 0.000000000000000000, 9.000000000000000000 ) ) ;
#6 =( NAMED_UNIT ( * ) PLANE_ANGLE_UNIT ( ) SI_UNIT ( $, .RADIAN. ) );
#7 = CYLINDRICAL_SURFACE ( 'NONE', #28, 19.99999999999999645 ) ;
#8 =( LENGTH_UNIT ( ) NAMED_UNIT ( * ) SI_UNIT ( .MILLI., .METRE. ) );
#9 = DIRECTION ( 'NONE',  ( -0.000000000000000000, -0.000000000000000000, 1.000000000000000000 ) ) ;
#10 = CIRCLE ( 'NONE', #370, 5.250000000000000000 ) ;
#11 = APPLICATION_PROTOCOL_DEFINITION ( 'international standard', 'config_control_design', 1994, #130 ) ;
#12 = DIRECTION ( 'NONE',  ( 1.000000000000000000, 0.000000000000000000, 0.000000000000000000 ) ) ;
#13 = PERSON_AND_ORGANIZATION_ROLE ( 'creator' ) ;
#14 = CARTESIAN_POINT ( 'NONE',  ( 0.000000000000000000, 0.000000000000000000, 9.000000000000000000 ) ) ;
#15 = COORDINATED_UNIVERSAL_TIME_OFFSET ( 1, 0, .AHEAD. ) ;
#16 = DIRECTION ( 'NONE',  ( 0.000000000000000000, 0.000000000000000000, 1.000000000000000000 ) ) ;
#17 = VECTOR ( 'NONE', #160, 1000.000000000000000 ) ;
#18 = ORGANIZATION ( 'NEURÈENÝ', 'NEURÈENÝ', '' ) ;
#19 = ORIENTED_EDGE ( 'NONE', *, *, #328, .T. ) ;
#20 = ORIENTED_EDGE ( 'NONE', *, *, #26, .F. ) ;
#21 = EDGE_LOOP ( 'NONE', ( #57, #268 ) ) ;
#22 = AXIS2_PLACEMENT_3D ( 'NONE', #102, #277, #133 ) ;
#23 = AXIS2_PLACEMENT_3D ( 'NONE', #14, #169, #12 ) ;
#24 = ORIENTED_EDGE ( 'NONE', *, *, #306, .T. ) ;
#25 = VERTEX_POINT ( 'NONE', #276 ) ;
#26 = EDGE_CURVE ( 'NONE', #325, #362, #245, .T. ) ;
#27 = FACE_OUTER_BOUND ( 'NONE', #258, .T. ) ;
#28 = AXIS2_PLACEMENT_3D ( 'NONE', #285, #248, #319 ) ;
#29 = ORIENTED_EDGE ( 'NONE', *, *, #212, .T. ) ;
#30 = CIRCLE ( 'NONE', #239, 4.249999999999998224 ) ;
#31 = PLANE ( 'NONE',  #166 ) ;
#32 = PERSON_AND_ORGANIZATION ( #53, #18 ) ;
#33 = ORIENTED_EDGE ( 'NONE', *, *, #299, .F. ) ;
#34 = AXIS2_PLACEMENT_3D ( 'NONE', #68, #9, #383 ) ;
#35 = DIRECTION ( 'NONE',  ( 0.7071067811865463515, 8.659560562354918067E-17, -0.7071067811865487940 ) ) ;
#36 = ORIENTED_EDGE ( 'NONE', *, *, #332, .T. ) ;
#37 = AXIS2_PLACEMENT_3D ( 'NONE', #69, #376, #105 ) ;
#38 = CALENDAR_DATE ( 2022, 11, 1 ) ;
#39 = DIRECTION ( 'NONE',  ( 0.000000000000000000, 0.000000000000000000, 1.000000000000000000 ) ) ;
#40 = DIRECTION ( 'NONE',  ( -0.000000000000000000, -0.000000000000000000, 1.000000000000000000 ) ) ;
#41 = CARTESIAN_POINT ( 'NONE',  ( 4.249999999999998224, 5.817072295949925454E-16, 1.000000000000004441 ) ) ;
#42 = EDGE_CURVE ( 'NONE', #385, #326, #206, .T. ) ;
#43 = LOCAL_TIME ( 10, 17, 7.000000000000000000, #260 ) ;
#44 = PRODUCT_DEFINITION_SHAPE ( 'NONE', 'NONE',  #194 ) ;
#45 = FACE_OUTER_BOUND ( 'NONE', #204, .T. ) ;
#46 = VECTOR ( 'NONE', #81, 1000.000000000000000 ) ;
#47 = DIRECTION ( 'NONE',  ( 1.000000000000000000, 0.000000000000000000, 0.000000000000000000 ) ) ;
#48 = CALENDAR_DATE ( 2022, 11, 1 ) ;
#49 = FACE_OUTER_BOUND ( 'NONE', #56, .T. ) ;
#50 = CC_DESIGN_DATE_AND_TIME_ASSIGNMENT ( #171, #389, ( #128 ) ) ;
#51 = DIRECTION ( 'NONE',  ( 1.000000000000000000, 0.000000000000000000, 0.000000000000000000 ) ) ;
#52 = VERTEX_POINT ( 'NONE', #151 ) ;
#53 = PERSON ( 'NEURÈENÝ', 'NEURÈENÝ', 'NEURÈENÝ', ('NEURÈENÝ'), ('NEURÈENÝ'), ('NEURÈENÝ') ) ;
#54 = APPROVAL_DATE_TIME ( #82, #339 ) ;
#55 = ORIENTED_EDGE ( 'NONE', *, *, #80, .F. ) ;
#56 = EDGE_LOOP ( 'NONE', ( #296, #131, #388, #175 ) ) ;
#57 = ORIENTED_EDGE ( 'NONE', *, *, #367, .F. ) ;
#58 = VECTOR ( 'NONE', #35, 1000.000000000000000 ) ;
#59 = VERTEX_POINT ( 'NONE', #187 ) ;
#60 = EDGE_CURVE ( 'NONE', #200, #209, #372, .T. ) ;
#61 = EDGE_LOOP ( 'NONE', ( #262, #144, #300, #153 ) ) ;
#62 = CARTESIAN_POINT ( 'NONE',  ( -5.250000000000000000, 6.429395695523604153E-16, 10.00000000000000000 ) ) ;
#63 = AXIS2_PLACEMENT_3D ( 'NONE', #196, #352, #135 ) ;
#64 = CIRCLE ( 'NONE', #195, 5.249999999999997335 ) ;
#65 = FACE_OUTER_BOUND ( 'NONE', #202, .T. ) ;
#66 = CARTESIAN_POINT ( 'NONE',  ( 19.99999999999999645, 2.449293598294706119E-15, 0.000000000000000000 ) ) ;
#67 = DIRECTION ( 'NONE',  ( 1.000000000000000000, 0.000000000000000000, 0.000000000000000000 ) ) ;
#68 = CARTESIAN_POINT ( 'NONE',  ( 0.000000000000000000, 0.000000000000000000, 1.734723475976807094E-15 ) ) ;
#69 = CARTESIAN_POINT ( 'NONE',  ( 0.000000000000000000, 0.000000000000000000, 0.000000000000000000 ) ) ;
#70 = LINE ( 'NONE', #162, #250 ) ;
#71 = EDGE_CURVE ( 'NONE', #59, #200, #30, .T. ) ;
#72 = APPLICATION_PROTOCOL_DEFINITION ( 'international standard', 'config_control_design', 1994, #259 ) ;
#73 = DIRECTION ( 'NONE',  ( -0.000000000000000000, -0.000000000000000000, 1.000000000000000000 ) ) ;
#74 = CARTESIAN_POINT ( 'NONE',  ( 0.000000000000000000, 0.000000000000000000, 10.00000000000000000 ) ) ;
#75 = LINE ( 'NONE', #375, #232 ) ;
#76 = LINE ( 'NONE', #308, #58 ) ;
#77 = AXIS2_PLACEMENT_3D ( 'NONE', #278, #283, #377 ) ;
#78 = DIRECTION ( 'NONE',  ( 1.000000000000000000, 0.000000000000000000, 0.000000000000000000 ) ) ;
#79 = AXIS2_PLACEMENT_3D ( 'NONE', #140, #16, #275 ) ;
#80 = EDGE_CURVE ( 'NONE', #326, #325, #356, .T. ) ;
#81 = DIRECTION ( 'NONE',  ( -0.7071067811865463515, 0.000000000000000000, -0.7071067811865487940 ) ) ;
#82 = DATE_AND_TIME ( #318, #338 ) ;
#83 = APPROVAL_PERSON_ORGANIZATION ( #155, #1, #246 ) ;
#84 = ORIENTED_EDGE ( 'NONE', *, *, #42, .F. ) ;
#85 = ORIENTED_EDGE ( 'NONE', *, *, #281, .T. ) ;
#86 = UNCERTAINTY_MEASURE_WITH_UNIT (LENGTH_MEASURE( 1.000000000000000082E-05 ), #8, 'distance_accuracy_value', 'NONE');
#87 = PERSON_AND_ORGANIZATION_ROLE ( 'classification_officer' ) ;
#88 = ORIENTED_EDGE ( 'NONE', *, *, #212, .F. ) ;
#89 = LOCAL_TIME ( 10, 17, 7.000000000000000000, #215 ) ;
#90 = ORIENTED_EDGE ( 'NONE', *, *, #185, .T. ) ;
#91 = AXIS2_PLACEMENT_3D ( 'NONE', #219, #158, #111 ) ;
#92 = CC_DESIGN_PERSON_AND_ORGANIZATION_ASSIGNMENT ( #386, #13, ( #398 ) ) ;
#93 = AXIS2_PLACEMENT_3D ( 'NONE', #284, #157, #222 ) ;
#94 = VERTEX_POINT ( 'NONE', #62 ) ;
#95 = CARTESIAN_POINT ( 'NONE',  ( -19.99999999999999645, 0.000000000000000000, 10.00000000000000000 ) ) ;
#96 = DIRECTION ( 'NONE',  ( 0.000000000000000000, 0.000000000000000000, -1.000000000000000000 ) ) ;
#97 = CIRCLE ( 'NONE', #77, 4.249999999999999112 ) ;
#98 = CARTESIAN_POINT ( 'NONE',  ( 19.49999999999999645, 2.388061258337338544E-15, 10.00000000000000000 ) ) ;
#99 = AXIS2_PLACEMENT_3D ( 'NONE', #320, #39, #47 ) ;
#100 = DATE_AND_TIME ( #371, #89 ) ;
#101 = DIRECTION ( 'NONE',  ( -1.000000000000000000, 0.000000000000000000, 0.000000000000000000 ) ) ;
#102 = CARTESIAN_POINT ( 'NONE',  ( 0.000000000000000000, 0.000000000000000000, 10.00000000000000000 ) ) ;
#103 = DIRECTION ( 'NONE',  ( -0.7071067811865474617, 0.000000000000000000, -0.7071067811865474617 ) ) ;
#104 = EDGE_CURVE ( 'NONE', #325, #326, #365, .T. ) ;
#105 = DIRECTION ( 'NONE',  ( 1.000000000000000000, 0.000000000000000000, 0.000000000000000000 ) ) ;
#106 = CIRCLE ( 'NONE', #350, 5.250000000000000000 ) ;
#107 = LINE ( 'NONE', #112, #17 ) ;
#108 = FACE_OUTER_BOUND ( 'NONE', #145, .T. ) ;
#109 = CARTESIAN_POINT ( 'NONE',  ( 0.000000000000000000, 0.000000000000000000, 1.734723475976807094E-15 ) ) ;
#110 = ADVANCED_FACE ( 'NONE', ( #392 ), #342, .F. ) ;
#111 = DIRECTION ( 'NONE',  ( -1.000000000000000000, 0.000000000000000000, 0.000000000000000000 ) ) ;
#112 = CARTESIAN_POINT ( 'NONE',  ( -4.249999999999998224, 5.204748896376249713E-16, 10.00000000000000000 ) ) ;
#113 = ORIENTED_EDGE ( 'NONE', *, *, #80, .T. ) ;
#114 = ORIENTED_EDGE ( 'NONE', *, *, #104, .F. ) ;
#115 = EDGE_CURVE ( 'NONE', #362, #120, #124, .T. ) ;
#116 = ORIENTED_EDGE ( 'NONE', *, *, #26, .T. ) ;
#117 =( GEOMETRIC_REPRESENTATION_CONTEXT ( 3 ) GLOBAL_UNCERTAINTY_ASSIGNED_CONTEXT ( ( #86 ) ) GLOBAL_UNIT_ASSIGNED_CONTEXT ( ( #8, #6, #213 ) ) REPRESENTATION_CONTEXT ( 'NONE', 'WORKASPACE' ) );
#118 = APPROVAL_ROLE ( '' ) ;
#119 = AXIS2_PLACEMENT_3D ( 'NONE', #136, #73, #252 ) ;
#120 = VERTEX_POINT ( 'NONE', #66 ) ;
#121 = CC_DESIGN_DATE_AND_TIME_ASSIGNMENT ( #159, #279, ( #194 ) ) ;
#122 = ORIENTED_EDGE ( 'NONE', *, *, #367, .T. ) ;
#123 = CARTESIAN_POINT ( 'NONE',  ( 0.000000000000000000, 0.000000000000000000, 0.000000000000000000 ) ) ;
#124 = CIRCLE ( 'NONE', #394, 19.99999999999999645 ) ;
#125 = DIRECTION ( 'NONE',  ( 1.000000000000000000, 0.000000000000000000, 0.000000000000000000 ) ) ;
#126 = ORIENTED_EDGE ( 'NONE', *, *, #167, .T. ) ;
#127 = ADVANCED_FACE ( 'NONE', ( #214 ), #270, .F. ) ;
#128 = SECURITY_CLASSIFICATION ( '', '', #225 ) ;
#129 = EDGE_LOOP ( 'NONE', ( #229, #293, #85, #333 ) ) ;
#130 = APPLICATION_CONTEXT ( 'configuration controlled 3d designs of mechanical parts and assemblies' ) ;
#131 = ORIENTED_EDGE ( 'NONE', *, *, #354, .T. ) ;
#132 = DIRECTION ( 'NONE',  ( 1.000000000000000000, 0.000000000000000000, -0.000000000000000000 ) ) ;
#133 = DIRECTION ( 'NONE',  ( -1.000000000000000000, 0.000000000000000000, 0.000000000000000000 ) ) ;
#134 = DIRECTION ( 'NONE',  ( 0.000000000000000000, 0.000000000000000000, 1.000000000000000000 ) ) ;
#135 = DIRECTION ( 'NONE',  ( 1.000000000000000000, 0.000000000000000000, 0.000000000000000000 ) ) ;
#136 = CARTESIAN_POINT ( 'NONE',  ( 0.000000000000000000, 0.000000000000000000, 10.00000000000000000 ) ) ;
#137 = CALENDAR_DATE ( 2022, 11, 1 ) ;
#138 = MANIFOLD_SOLID_BREP ( 'Zkosení1', #3 ) ;
#139 = LINE ( 'NONE', #254, #210 ) ;
#140 = CARTESIAN_POINT ( 'NONE',  ( 0.000000000000000000, 0.000000000000000000, 10.00000000000000000 ) ) ;
#141 = VECTOR ( 'NONE', #208, 1000.000000000000000 ) ;
#142 = ORIENTED_EDGE ( 'NONE', *, *, #242, .F. ) ;
#143 = ADVANCED_FACE ( 'NONE', ( #27 ), #272, .T. ) ;
#144 = ORIENTED_EDGE ( 'NONE', *, *, #238, .T. ) ;
#145 = EDGE_LOOP ( 'NONE', ( #142, #113, #116, #327 ) ) ;
#146 = ADVANCED_FACE ( 'NONE', ( #65 ), #269, .F. ) ;
#147 = ORIENTED_EDGE ( 'NONE', *, *, #306, .F. ) ;
#148 = ORIENTED_EDGE ( 'NONE', *, *, #332, .F. ) ;
#149 = EDGE_LOOP ( 'NONE', ( #84, #147, #29, #55 ) ) ;
#150 = AXIS2_PLACEMENT_3D ( 'NONE', #303, #184, #101 ) ;
#151 = CARTESIAN_POINT ( 'NONE',  ( -4.249999999999999112, 5.204748896376249713E-16, 9.000000000000000000 ) ) ;
#152 = ADVANCED_FACE ( 'NONE', ( #366, #305 ), #31, .T. ) ;
#153 = ORIENTED_EDGE ( 'NONE', *, *, #167, .F. ) ;
#154 = CC_DESIGN_APPROVAL ( #1, ( #194 ) ) ;
#155 = PERSON_AND_ORGANIZATION ( #53, #18 ) ;
#156 = DIRECTION ( 'NONE',  ( -0.000000000000000000, -0.000000000000000000, -1.000000000000000000 ) ) ;
#157 = DIRECTION ( 'NONE',  ( 0.000000000000000000, 0.000000000000000000, 1.000000000000000000 ) ) ;
#158 = DIRECTION ( 'NONE',  ( 0.000000000000000000, 0.000000000000000000, -1.000000000000000000 ) ) ;
#159 = DATE_AND_TIME ( #38, #382 ) ;
#160 = DIRECTION ( 'NONE',  ( -0.000000000000000000, -0.000000000000000000, 1.000000000000000000 ) ) ;
#161 = PLANE ( 'NONE',  #93 ) ;
#162 = CARTESIAN_POINT ( 'NONE',  ( 5.250000000000000000, 0.000000000000000000, 10.00000000000000000 ) ) ;
#163 = CIRCLE ( 'NONE', #79, 19.49999999999999645 ) ;
#164 = FACE_OUTER_BOUND ( 'NONE', #353, .T. ) ;
#165 = DIRECTION ( 'NONE',  ( 0.7071067811865474617, 0.000000000000000000, 0.7071067811865474617 ) ) ;
#166 = AXIS2_PLACEMENT_3D ( 'NONE', #220, #134, #132 ) ;
#167 = EDGE_CURVE ( 'NONE', #209, #329, #70, .T. ) ;
#168 = PERSON_AND_ORGANIZATION ( #53, #18 ) ;
#169 = DIRECTION ( 'NONE',  ( -0.000000000000000000, -0.000000000000000000, 1.000000000000000000 ) ) ;
#170 = CARTESIAN_POINT ( 'NONE',  ( 19.99999999999999645, 2.449293598294706119E-15, 9.500000000000000000 ) ) ;
#171 = DATE_AND_TIME ( #137, #273 ) ;
#172 = ORIENTED_EDGE ( 'NONE', *, *, #299, .T. ) ;
#173 = AXIS2_PLACEMENT_3D ( 'NONE', #243, #181, #369 ) ;
#174 = EDGE_LOOP ( 'NONE', ( #24, #19 ) ) ;
#175 = ORIENTED_EDGE ( 'NONE', *, *, #286, .F. ) ;
#176 = ADVANCED_FACE ( 'NONE', ( #344 ), #304, .T. ) ;
#177 = AXIS2_PLACEMENT_3D ( 'NONE', #379, #256, #51 ) ;
#178 = ORIENTED_EDGE ( 'NONE', *, *, #354, .F. ) ;
#179 = DIRECTION ( 'NONE',  ( 1.000000000000000000, 0.000000000000000000, 0.000000000000000000 ) ) ;
#180 = CC_DESIGN_PERSON_AND_ORGANIZATION_ASSIGNMENT ( #351, #87, ( #128 ) ) ;
#181 = DIRECTION ( 'NONE',  ( -0.000000000000000000, -0.000000000000000000, 1.000000000000000000 ) ) ;
#182 = CIRCLE ( 'NONE', #23, 4.249999999999999112 ) ;
#183 = CARTESIAN_POINT ( 'NONE',  ( 0.000000000000000000, 0.000000000000000000, 10.00000000000000000 ) ) ;
#184 = DIRECTION ( 'NONE',  ( 0.000000000000000000, 0.000000000000000000, -1.000000000000000000 ) ) ;
#185 = EDGE_CURVE ( 'NONE', #209, #52, #182, .T. ) ;
#186 = DIRECTION ( 'NONE',  ( -0.000000000000000000, -0.000000000000000000, 1.000000000000000000 ) ) ;
#187 = CARTESIAN_POINT ( 'NONE',  ( -4.249999999999998224, 0.000000000000000000, 1.000000000000004441 ) ) ;
#188 = COORDINATED_UNIVERSAL_TIME_OFFSET ( 1, 0, .AHEAD. ) ;
#189 = AXIS2_PLACEMENT_3D ( 'NONE', #240, #237, #179 ) ;
#190 = CARTESIAN_POINT ( 'NONE',  ( 0.000000000000000000, 0.000000000000000000, 10.00000000000000000 ) ) ;
#191 = PERSON_AND_ORGANIZATION_ROLE ( 'design_owner' ) ;
#192 = CARTESIAN_POINT ( 'NONE',  ( 0.000000000000000000, 0.000000000000000000, 1.000000000000004441 ) ) ;
#193 = CARTESIAN_POINT ( 'NONE',  ( 5.249999999999997335, 6.429395695523601195E-16, 1.734723475976807094E-15 ) ) ;
#194 = PRODUCT_DEFINITION ( 'NEZNÁMÝ', '', #398, #384 ) ;
#195 = AXIS2_PLACEMENT_3D ( 'NONE', #109, #40, #374 ) ;
#196 = CARTESIAN_POINT ( 'NONE',  ( 0.000000000000000000, 0.000000000000000000, 10.00000000000000000 ) ) ;
#197 = FACE_OUTER_BOUND ( 'NONE', #129, .T. ) ;
#198 = EDGE_LOOP ( 'NONE', ( #360, #36 ) ) ;
#199 = PERSON_AND_ORGANIZATION ( #53, #18 ) ;
#200 = VERTEX_POINT ( 'NONE', #41 ) ;
#201 = AXIS2_PLACEMENT_3D ( 'NONE', #364, #156, #2 ) ;
#202 = EDGE_LOOP ( 'NONE', ( #205, #33, #298, #90 ) ) ;
#203 = APPROVAL_PERSON_ORGANIZATION ( #168, #395, #118 ) ;
#204 = EDGE_LOOP ( 'NONE', ( #292, #397 ) ) ;
#205 = ORIENTED_EDGE ( 'NONE', *, *, #263, .F. ) ;
#206 = LINE ( 'NONE', #98, #310 ) ;
#207 = EDGE_CURVE ( 'NONE', #94, #329, #10, .T. ) ;
#208 = DIRECTION ( 'NONE',  ( -0.000000000000000000, -0.000000000000000000, 1.000000000000000000 ) ) ;
#209 = VERTEX_POINT ( 'NONE', #5 ) ;
#210 = VECTOR ( 'NONE', #315, 1000.000000000000000 ) ;
#211 = DIRECTION ( 'NONE',  ( -0.000000000000000000, -0.000000000000000000, -1.000000000000000000 ) ) ;
#212 = EDGE_CURVE ( 'NONE', #25, #325, #75, .T. ) ;
#213 =( NAMED_UNIT ( * ) SI_UNIT ( $, .STERADIAN. ) SOLID_ANGLE_UNIT ( ) );
#214 = FACE_OUTER_BOUND ( 'NONE', #264, .T. ) ;
#215 = COORDINATED_UNIVERSAL_TIME_OFFSET ( 1, 0, .AHEAD. ) ;
#216 = CYLINDRICAL_SURFACE ( 'NONE', #119, 4.249999999999998224 ) ;
#217 = AXIS2_PLACEMENT_3D ( 'NONE', #192, #347, #78 ) ;
#218 = APPROVAL_DATE_TIME ( #100, #1 ) ;
#219 = CARTESIAN_POINT ( 'NONE',  ( 0.000000000000000000, 0.000000000000000000, 1.000000000000004441 ) ) ;
#220 = CARTESIAN_POINT ( 'NONE',  ( 0.000000000000000000, 0.000000000000000000, 10.00000000000000000 ) ) ;
#221 = CC_DESIGN_APPROVAL ( #339, ( #128 ) ) ;
#222 = DIRECTION ( 'NONE',  ( 1.000000000000000000, 0.000000000000000000, -0.000000000000000000 ) ) ;
#223 = LINE ( 'NONE', #226, #46 ) ;
#224 = CONICAL_SURFACE ( 'NONE', #91, 4.249999999999998224, 0.7853981633974466137 ) ;
#225 = SECURITY_CLASSIFICATION_LEVEL ( 'unclassified' ) ;
#226 = CARTESIAN_POINT ( 'NONE',  ( -4.249999999999998224, 0.000000000000000000, 1.000000000000004441 ) ) ;
#227 = APPROVAL_DATE_TIME ( #295, #395 ) ;
#228 = PERSON_AND_ORGANIZATION_ROLE ( 'design_supplier' ) ;
#229 = ORIENTED_EDGE ( 'NONE', *, *, #71, .F. ) ;
#230 = ORIENTED_EDGE ( 'NONE', *, *, #238, .F. ) ;
#231 = AXIS2_PLACEMENT_3D ( 'NONE', #399, #96, #241 ) ;
#232 = VECTOR ( 'NONE', #103, 1000.000000000000114 ) ;
#233 = APPROVAL_STATUS ( 'not_yet_approved' ) ;
#234 = ADVANCED_FACE ( 'NONE', ( #197 ), #216, .F. ) ;
#235 = ORIENTED_EDGE ( 'NONE', *, *, #242, .T. ) ;
#236 = VERTEX_POINT ( 'NONE', #193 ) ;
#237 = DIRECTION ( 'NONE',  ( 0.000000000000000000, 0.000000000000000000, -1.000000000000000000 ) ) ;
#238 = EDGE_CURVE ( 'NONE', #52, #94, #381, .T. ) ;
#239 = AXIS2_PLACEMENT_3D ( 'NONE', #330, #335, #331 ) ;
#240 = CARTESIAN_POINT ( 'NONE',  ( 0.000000000000000000, 0.000000000000000000, 9.500000000000000000 ) ) ;
#241 = DIRECTION ( 'NONE',  ( 1.000000000000000000, 0.000000000000000000, 0.000000000000000000 ) ) ;
#242 = EDGE_CURVE ( 'NONE', #326, #120, #139, .T. ) ;
#243 = CARTESIAN_POINT ( 'NONE',  ( 0.000000000000000000, 0.000000000000000000, 10.00000000000000000 ) ) ;
#244 = AXIS2_PLACEMENT_3D ( 'NONE', #183, #393, #125 ) ;
#245 = LINE ( 'NONE', #95, #257 ) ;
#246 = APPROVAL_ROLE ( '' ) ;
#247 = DIRECTION ( 'NONE',  ( 0.000000000000000000, 0.000000000000000000, -1.000000000000000000 ) ) ;
#248 = DIRECTION ( 'NONE',  ( -0.000000000000000000, -0.000000000000000000, -1.000000000000000000 ) ) ;
#249 = EDGE_CURVE ( 'NONE', #120, #362, #265, .T. ) ;
#250 = VECTOR ( 'NONE', #165, 1000.000000000000114 ) ;
#251 = FACE_OUTER_BOUND ( 'NONE', #61, .T. ) ;
#252 = DIRECTION ( 'NONE',  ( 1.000000000000000000, 0.000000000000000000, 0.000000000000000000 ) ) ;
#253 = SHAPE_DEFINITION_REPRESENTATION ( #44, #291 ) ;
#254 = CARTESIAN_POINT ( 'NONE',  ( 19.99999999999999645, 2.449293598294706119E-15, 10.00000000000000000 ) ) ;
#255 = COORDINATED_UNIVERSAL_TIME_OFFSET ( 1, 0, .AHEAD. ) ;
#256 = DIRECTION ( 'NONE',  ( -0.000000000000000000, -0.000000000000000000, 1.000000000000000000 ) ) ;
#257 = VECTOR ( 'NONE', #211, 1000.000000000000000 ) ;
#258 = EDGE_LOOP ( 'NONE', ( #322, #235, #266, #20 ) ) ;
#259 = APPLICATION_CONTEXT ( 'configuration controlled 3d designs of mechanical parts and assemblies' ) ;
#260 = COORDINATED_UNIVERSAL_TIME_OFFSET ( 1, 0, .AHEAD. ) ;
#261 = APPROVAL_PERSON_ORGANIZATION ( #321, #339, #323 ) ;
#262 = ORIENTED_EDGE ( 'NONE', *, *, #281, .F. ) ;
#263 = EDGE_CURVE ( 'NONE', #59, #52, #107, .T. ) ;
#264 = EDGE_LOOP ( 'NONE', ( #178, #172, #387, #148 ) ) ;
#265 = CIRCLE ( 'NONE', #99, 19.99999999999999645 ) ;
#266 = ORIENTED_EDGE ( 'NONE', *, *, #249, .T. ) ;
#267 = ADVANCED_FACE ( 'NONE', ( #108 ), #7, .T. ) ;
#268 = ORIENTED_EDGE ( 'NONE', *, *, #207, .F. ) ;
#269 = CYLINDRICAL_SURFACE ( 'NONE', #244, 4.249999999999998224 ) ;
#270 = CONICAL_SURFACE ( 'NONE', #150, 4.249999999999998224, 0.7853981633974466137 ) ;
#271 = ORIENTED_EDGE ( 'NONE', *, *, #42, .T. ) ;
#272 = CYLINDRICAL_SURFACE ( 'NONE', #201, 19.99999999999999645 ) ;
#273 = LOCAL_TIME ( 10, 17, 7.000000000000000000, #15 ) ;
#274 = ADVANCED_FACE ( 'NONE', ( #49 ), #224, .F. ) ;
#275 = DIRECTION ( 'NONE',  ( 1.000000000000000000, 0.000000000000000000, 0.000000000000000000 ) ) ;
#276 = CARTESIAN_POINT ( 'NONE',  ( -19.49999999999999645, 0.000000000000000000, 10.00000000000000000 ) ) ;
#277 = DIRECTION ( 'NONE',  ( 0.000000000000000000, 0.000000000000000000, -1.000000000000000000 ) ) ;
#278 = CARTESIAN_POINT ( 'NONE',  ( 0.000000000000000000, 0.000000000000000000, 9.000000000000000000 ) ) ;
#279 = DATE_TIME_ROLE ( 'creation_date' ) ;
#280 = DIRECTION ( 'NONE',  ( 1.000000000000000000, 0.000000000000000000, 0.000000000000000000 ) ) ;
#281 = EDGE_CURVE ( 'NONE', #52, #209, #97, .T. ) ;
#282 = FACE_BOUND ( 'NONE', #198, .T. ) ;
#283 = DIRECTION ( 'NONE',  ( -0.000000000000000000, -0.000000000000000000, 1.000000000000000000 ) ) ;
#284 = CARTESIAN_POINT ( 'NONE',  ( 0.000000000000000000, 0.000000000000000000, 0.000000000000000000 ) ) ;
#285 = CARTESIAN_POINT ( 'NONE',  ( 0.000000000000000000, 0.000000000000000000, 10.00000000000000000 ) ) ;
#286 = EDGE_CURVE ( 'NONE', #59, #355, #223, .T. ) ;
#287 = APPROVAL_STATUS ( 'not_yet_approved' ) ;
#288 = CARTESIAN_POINT ( 'NONE',  ( -5.250000000000000000, 6.429395695523604153E-16, 10.00000000000000000 ) ) ;
#289 = PRODUCT_RELATED_PRODUCT_CATEGORY ( 'detail', '', ( #396 ) ) ;
#290 = CARTESIAN_POINT ( 'NONE',  ( -19.99999999999999645, 0.000000000000000000, 9.500000000000000000 ) ) ;
#291 = ADVANCED_BREP_SHAPE_REPRESENTATION ( 'A-0742-plate', ( #138, #37 ), #117 ) ;
#292 = ORIENTED_EDGE ( 'NONE', *, *, #115, .F. ) ;
#293 = ORIENTED_EDGE ( 'NONE', *, *, #263, .T. ) ;
#294 = EDGE_CURVE ( 'NONE', #355, #236, #363, .T. ) ;
#295 = DATE_AND_TIME ( #48, #43 ) ;
#296 = ORIENTED_EDGE ( 'NONE', *, *, #71, .T. ) ;
#297 = CONICAL_SURFACE ( 'NONE', #177, 5.250000000000000000, 0.7853981633974482790 ) ;
#298 = ORIENTED_EDGE ( 'NONE', *, *, #60, .T. ) ;
#299 = EDGE_CURVE ( 'NONE', #200, #59, #316, .T. ) ;
#300 = ORIENTED_EDGE ( 'NONE', *, *, #207, .T. ) ;
#301 = CC_DESIGN_APPROVAL ( #395, ( #398 ) ) ;
#302 = DIRECTION ( 'NONE',  ( 1.000000000000000000, 0.000000000000000000, 0.000000000000000000 ) ) ;
#303 = CARTESIAN_POINT ( 'NONE',  ( 0.000000000000000000, 0.000000000000000000, 1.000000000000004441 ) ) ;
#304 = CONICAL_SURFACE ( 'NONE', #357, 19.49999999999999645, 0.7853981633974482790 ) ;
#305 = FACE_BOUND ( 'NONE', #21, .T. ) ;
#306 = EDGE_CURVE ( 'NONE', #25, #385, #349, .T. ) ;
#307 = DIRECTION ( 'NONE',  ( 0.7071067811865474617, 8.659560562354932858E-17, -0.7071067811865474617 ) ) ;
#308 = CARTESIAN_POINT ( 'NONE',  ( 4.249999999999998224, 5.204748896376249713E-16, 1.000000000000004441 ) ) ;
#309 = CARTESIAN_POINT ( 'NONE',  ( 4.249999999999998224, 0.000000000000000000, 10.00000000000000000 ) ) ;
#310 = VECTOR ( 'NONE', #307, 1000.000000000000114 ) ;
#311 = DIRECTION ( 'NONE',  ( -0.000000000000000000, -0.000000000000000000, 1.000000000000000000 ) ) ;
#312 = CARTESIAN_POINT ( 'NONE',  ( -19.99999999999999645, 0.000000000000000000, 0.000000000000000000 ) ) ;
#313 = DIRECTION ( 'NONE',  ( -0.7071067811865474617, 8.659560562354932858E-17, 0.7071067811865474617 ) ) ;
#314 = PERSON_AND_ORGANIZATION_ROLE ( 'creator' ) ;
#315 = DIRECTION ( 'NONE',  ( -0.000000000000000000, -0.000000000000000000, -1.000000000000000000 ) ) ;
#316 = CIRCLE ( 'NONE', #217, 4.249999999999998224 ) ;
#317 = ADVANCED_FACE ( 'NONE', ( #251 ), #297, .F. ) ;
#318 = CALENDAR_DATE ( 2022, 11, 1 ) ;
#319 = DIRECTION ( 'NONE',  ( -1.000000000000000000, 0.000000000000000000, 0.000000000000000000 ) ) ;
#320 = CARTESIAN_POINT ( 'NONE',  ( 0.000000000000000000, 0.000000000000000000, 0.000000000000000000 ) ) ;
#321 = PERSON_AND_ORGANIZATION ( #53, #18 ) ;
#322 = ORIENTED_EDGE ( 'NONE', *, *, #104, .T. ) ;
#323 = APPROVAL_ROLE ( '' ) ;
#324 = CC_DESIGN_PERSON_AND_ORGANIZATION_ASSIGNMENT ( #199, #228, ( #398 ) ) ;
#325 = VERTEX_POINT ( 'NONE', #290 ) ;
#326 = VERTEX_POINT ( 'NONE', #170 ) ;
#327 = ORIENTED_EDGE ( 'NONE', *, *, #115, .T. ) ;
#328 = EDGE_CURVE ( 'NONE', #385, #25, #163, .T. ) ;
#329 = VERTEX_POINT ( 'NONE', #336 ) ;
#330 = CARTESIAN_POINT ( 'NONE',  ( 0.000000000000000000, 0.000000000000000000, 1.000000000000004441 ) ) ;
#331 = DIRECTION ( 'NONE',  ( 1.000000000000000000, 0.000000000000000000, 0.000000000000000000 ) ) ;
#332 = EDGE_CURVE ( 'NONE', #236, #355, #64, .T. ) ;
#333 = ORIENTED_EDGE ( 'NONE', *, *, #60, .F. ) ;
#334 = CONICAL_SURFACE ( 'NONE', #22, 19.49999999999999645, 0.7853981633974482790 ) ;
#335 = DIRECTION ( 'NONE',  ( -0.000000000000000000, -0.000000000000000000, 1.000000000000000000 ) ) ;
#336 = CARTESIAN_POINT ( 'NONE',  ( 5.250000000000000000, 0.000000000000000000, 10.00000000000000000 ) ) ;
#337 = ORIENTED_EDGE ( 'NONE', *, *, #328, .F. ) ;
#338 = LOCAL_TIME ( 10, 17, 7.000000000000000000, #255 ) ;
#339 = APPROVAL ( #233, 'NEURÈENÝ' ) ;
#340 = CARTESIAN_POINT ( 'NONE',  ( 19.49999999999999645, 2.418677428316022331E-15, 10.00000000000000000 ) ) ;
#341 = DIRECTION ( 'NONE',  ( -1.000000000000000000, 0.000000000000000000, 0.000000000000000000 ) ) ;
#342 = CONICAL_SURFACE ( 'NONE', #173, 5.250000000000000000, 0.7853981633974482790 ) ;
#343 = CARTESIAN_POINT ( 'NONE',  ( -5.249999999999997335, 0.000000000000000000, 1.734723475976807094E-15 ) ) ;
#344 = FACE_OUTER_BOUND ( 'NONE', #149, .T. ) ;
#345 = PERSON_AND_ORGANIZATION ( #53, #18 ) ;
#346 = CARTESIAN_POINT ( 'NONE',  ( 0.000000000000000000, 0.000000000000000000, 10.00000000000000000 ) ) ;
#347 = DIRECTION ( 'NONE',  ( -0.000000000000000000, -0.000000000000000000, 1.000000000000000000 ) ) ;
#348 = CC_DESIGN_PERSON_AND_ORGANIZATION_ASSIGNMENT ( #345, #314, ( #194 ) ) ;
#349 = CIRCLE ( 'NONE', #63, 19.49999999999999645 ) ;
#350 = AXIS2_PLACEMENT_3D ( 'NONE', #74, #186, #67 ) ;
#351 = PERSON_AND_ORGANIZATION ( #53, #18 ) ;
#352 = DIRECTION ( 'NONE',  ( 0.000000000000000000, 0.000000000000000000, 1.000000000000000000 ) ) ;
#353 = EDGE_LOOP ( 'NONE', ( #337, #271, #114, #88 ) ) ;
#354 = EDGE_CURVE ( 'NONE', #200, #236, #76, .T. ) ;
#355 = VERTEX_POINT ( 'NONE', #343 ) ;
#356 = CIRCLE ( 'NONE', #231, 19.99999999999999645 ) ;
#357 = AXIS2_PLACEMENT_3D ( 'NONE', #346, #247, #341 ) ;
#358 = EDGE_LOOP ( 'NONE', ( #230, #391, #126, #122 ) ) ;
#359 = ADVANCED_FACE ( 'NONE', ( #282, #45 ), #161, .F. ) ;
#360 = ORIENTED_EDGE ( 'NONE', *, *, #294, .T. ) ;
#361 = CC_DESIGN_SECURITY_CLASSIFICATION ( #128, ( #398 ) ) ;
#362 = VERTEX_POINT ( 'NONE', #312 ) ;
#363 = CIRCLE ( 'NONE', #34, 5.249999999999997335 ) ;
#364 = CARTESIAN_POINT ( 'NONE',  ( 0.000000000000000000, 0.000000000000000000, 10.00000000000000000 ) ) ;
#365 = CIRCLE ( 'NONE', #189, 19.99999999999999645 ) ;
#366 = FACE_OUTER_BOUND ( 'NONE', #174, .T. ) ;
#367 = EDGE_CURVE ( 'NONE', #329, #94, #106, .T. ) ;
#368 = DIRECTION ( 'NONE',  ( 0.000000000000000000, 0.000000000000000000, 1.000000000000000000 ) ) ;
#369 = DIRECTION ( 'NONE',  ( 1.000000000000000000, 0.000000000000000000, 0.000000000000000000 ) ) ;
#370 = AXIS2_PLACEMENT_3D ( 'NONE', #190, #311, #280 ) ;
#371 = CALENDAR_DATE ( 2022, 11, 1 ) ;
#372 = LINE ( 'NONE', #309, #141 ) ;
#373 = CC_DESIGN_PERSON_AND_ORGANIZATION_ASSIGNMENT ( #32, #191, ( #396 ) ) ;
#374 = DIRECTION ( 'NONE',  ( 1.000000000000000000, 0.000000000000000000, 0.000000000000000000 ) ) ;
#375 = CARTESIAN_POINT ( 'NONE',  ( -19.49999999999999645, 0.000000000000000000, 10.00000000000000000 ) ) ;
#376 = DIRECTION ( 'NONE',  ( 0.000000000000000000, 0.000000000000000000, 1.000000000000000000 ) ) ;
#377 = DIRECTION ( 'NONE',  ( 1.000000000000000000, 0.000000000000000000, 0.000000000000000000 ) ) ;
#378 = APPROVAL_STATUS ( 'not_yet_approved' ) ;
#379 = CARTESIAN_POINT ( 'NONE',  ( 0.000000000000000000, 0.000000000000000000, 10.00000000000000000 ) ) ;
#380 = ADVANCED_FACE ( 'NONE', ( #164 ), #334, .T. ) ;
#381 = LINE ( 'NONE', #288, #390 ) ;
#382 = LOCAL_TIME ( 10, 17, 7.000000000000000000, #188 ) ;
#383 = DIRECTION ( 'NONE',  ( 1.000000000000000000, 0.000000000000000000, 0.000000000000000000 ) ) ;
#384 = DESIGN_CONTEXT ( 'detailed design', #130, 'design' ) ;
#385 = VERTEX_POINT ( 'NONE', #340 ) ;
#386 = PERSON_AND_ORGANIZATION ( #53, #18 ) ;
#387 = ORIENTED_EDGE ( 'NONE', *, *, #286, .T. ) ;
#388 = ORIENTED_EDGE ( 'NONE', *, *, #294, .F. ) ;
#389 = DATE_TIME_ROLE ( 'classification_date' ) ;
#390 = VECTOR ( 'NONE', #313, 1000.000000000000114 ) ;
#391 = ORIENTED_EDGE ( 'NONE', *, *, #185, .F. ) ;
#392 = FACE_OUTER_BOUND ( 'NONE', #358, .T. ) ;
#393 = DIRECTION ( 'NONE',  ( -0.000000000000000000, -0.000000000000000000, 1.000000000000000000 ) ) ;
#394 = AXIS2_PLACEMENT_3D ( 'NONE', #123, #368, #302 ) ;
#395 = APPROVAL ( #287, 'NEURÈENÝ' ) ;
#396 = PRODUCT ( 'A-0742-plate', 'A-0742-plate', '', ( #4 ) ) ;
#397 = ORIENTED_EDGE ( 'NONE', *, *, #249, .F. ) ;
#398 = PRODUCT_DEFINITION_FORMATION_WITH_SPECIFIED_SOURCE ( 'LIBOVOLNÝ', '', #396, .NOT_KNOWN. ) ;
#399 = CARTESIAN_POINT ( 'NONE',  ( 0.000000000000000000, 0.000000000000000000, 9.500000000000000000 ) ) ;
ENDSEC;
END-ISO-10303-21;
