ISO-10303-21;
HEADER;
FILE_DESCRIPTION (( 'STEP AP203' ),
    '1' );
FILE_NAME ('A14_08-washer.STEP',
    '2022-01-27T12:22:02',
    ( '' ),
    ( '' ),
    'SwSTEP 2.0',
    'SolidWorks 2019',
    '' );
FILE_SCHEMA (( 'CONFIG_CONTROL_DESIGN' ));
ENDSEC;

DATA;
#1 = DIRECTION ( 'NONE',  ( -0.000000000000000000, 1.000000000000000000, -0.000000000000000000 ) ) ;
#2 = APPROVAL_PERSON_ORGANIZATION ( #269, #299, #10 ) ;
#3 = DIRECTION ( 'NONE',  ( -0.000000000000000000, 1.000000000000000000, -0.000000000000000000 ) ) ;
#4 = EDGE_LOOP ( 'NONE', ( #111, #64, #116, #46 ) ) ;
#5 = DATE_TIME_ROLE ( 'classification_date' ) ;
#6 = CIRCLE ( 'NONE', #243, 5.800000000000001599 ) ;
#7 = ORIENTED_EDGE ( 'NONE', *, *, #89, .F. ) ;
#8 = DATE_AND_TIME ( #250, #232 ) ;
#9 = ORIENTED_EDGE ( 'NONE', *, *, #124, .T. ) ;
#10 = APPROVAL_ROLE ( '' ) ;
#11 = VERTEX_POINT ( 'NONE', #23 ) ;
#12 = EDGE_CURVE ( 'NONE', #307, #200, #339, .T. ) ;
#13 = EDGE_CURVE ( 'NONE', #43, #330, #97, .T. ) ;
#14 =( NAMED_UNIT ( * ) SI_UNIT ( $, .STERADIAN. ) SOLID_ANGLE_UNIT ( ) );
#15 = ORIENTED_EDGE ( 'NONE', *, *, #102, .T. ) ;
#16 = VECTOR ( 'NONE', #150, 999.9999999999998863 ) ;
#17 = AXIS2_PLACEMENT_3D ( 'NONE', #318, #25, #239 ) ;
#18 = DIRECTION ( 'NONE',  ( 0.000000000000000000, 0.000000000000000000, 1.000000000000000000 ) ) ;
#19 = EDGE_CURVE ( 'NONE', #251, #200, #125, .T. ) ;
#20 = DIRECTION ( 'NONE',  ( -0.000000000000000000, 1.000000000000000000, -0.000000000000000000 ) ) ;
#21 = CYLINDRICAL_SURFACE ( 'NONE', #148, 4.250000000000001776 ) ;
#22 = AXIS2_PLACEMENT_3D ( 'NONE', #103, #20, #18 ) ;
#23 = CARTESIAN_POINT ( 'NONE',  ( 1.334865011070615048E-15, 4.700000000000001066, -10.90000000000000036 ) ) ;
#24 = CARTESIAN_POINT ( 'NONE',  ( 5.800000000000001599, -0.9999999999999993339, 0.000000000000000000 ) ) ;
#25 = DIRECTION ( 'NONE',  ( -0.000000000000000000, 1.000000000000000000, -0.000000000000000000 ) ) ;
#26 = CONICAL_SURFACE ( 'NONE', #219, 5.800000000000001599, 0.7853981633974491672 ) ;
#27 = DIRECTION ( 'NONE',  ( 0.000000000000000000, -1.000000000000000000, 0.000000000000000000 ) ) ;
#28 = EDGE_CURVE ( 'NONE', #330, #94, #158, .T. ) ;
#29 = CC_DESIGN_PERSON_AND_ORGANIZATION_ASSIGNMENT ( #252, #39, ( #207 ) ) ;
#30 = DIRECTION ( 'NONE',  ( -0.000000000000000000, 1.000000000000000000, -0.000000000000000000 ) ) ;
#31 = CARTESIAN_POINT ( 'NONE',  ( 0.000000000000000000, 4.700000000000001066, 8.850000000000001421 ) ) ;
#32 = CONICAL_SURFACE ( 'NONE', #227, 5.800000000000001599, 0.7853981633974491672 ) ;
#33 = DIRECTION ( 'NONE',  ( -0.000000000000000000, 1.000000000000000000, -0.000000000000000000 ) ) ;
#34 = PERSON_AND_ORGANIZATION_ROLE ( 'design_owner' ) ;
#35 = APPLICATION_PROTOCOL_DEFINITION ( 'international standard', 'config_control_design', 1994, #129 ) ;
#36 = UNCERTAINTY_MEASURE_WITH_UNIT (LENGTH_MEASURE( 1.000000000000000082E-05 ), #162, 'distance_accuracy_value', 'NONE');
#37 = ORIENTED_EDGE ( 'NONE', *, *, #28, .T. ) ;
#38 = PRODUCT ( 'A14_08-washer', 'A14_08-washer', '', ( #245 ) ) ;
#39 = PERSON_AND_ORGANIZATION_ROLE ( 'classification_officer' ) ;
#40 = EDGE_LOOP ( 'NONE', ( #128, #326 ) ) ;
#41 = AXIS2_PLACEMENT_3D ( 'NONE', #185, #320, #291 ) ;
#42 = PERSON_AND_ORGANIZATION ( #68, #126 ) ;
#43 = VERTEX_POINT ( 'NONE', #149 ) ;
#44 = PERSON_AND_ORGANIZATION_ROLE ( 'creator' ) ;
#45 = EDGE_LOOP ( 'NONE', ( #153, #280 ) ) ;
#46 = ORIENTED_EDGE ( 'NONE', *, *, #348, .F. ) ;
#47 = AXIS2_PLACEMENT_3D ( 'NONE', #24, #123, #342 ) ;
#48 = CIRCLE ( 'NONE', #17, 10.90000000000000036 ) ;
#49 = DIRECTION ( 'NONE',  ( -0.000000000000000000, 1.000000000000000000, -0.000000000000000000 ) ) ;
#50 = FACE_OUTER_BOUND ( 'NONE', #146, .T. ) ;
#51 = CARTESIAN_POINT ( 'NONE',  ( 0.000000000000000000, 0.1000000000000098033, 0.000000000000000000 ) ) ;
#52 = CARTESIAN_POINT ( 'NONE',  ( 7.102951435054649637E-16, -0.9999999999999991118, -5.800000000000001599 ) ) ;
#53 = LINE ( 'NONE', #346, #120 ) ;
#54 = CARTESIAN_POINT ( 'NONE',  ( 0.000000000000000000, 4.700000000000001066, 0.000000000000000000 ) ) ;
#55 = EDGE_CURVE ( 'NONE', #200, #307, #276, .T. ) ;
#56 = EDGE_CURVE ( 'NONE', #94, #330, #186, .T. ) ;
#57 = LOCAL_TIME ( 13, 22, 2.000000000000000000, #166 ) ;
#58 = FACE_OUTER_BOUND ( 'NONE', #218, .T. ) ;
#59 = CALENDAR_DATE ( 2022, 27, 1 ) ;
#60 = ORIENTED_EDGE ( 'NONE', *, *, #89, .T. ) ;
#61 = APPROVAL_STATUS ( 'not_yet_approved' ) ;
#62 = ORIENTED_EDGE ( 'NONE', *, *, #151, .T. ) ;
#63 = LOCAL_TIME ( 13, 22, 2.000000000000000000, #323 ) ;
#64 = ORIENTED_EDGE ( 'NONE', *, *, #19, .T. ) ;
#65 = PERSON_AND_ORGANIZATION ( #68, #126 ) ;
#66 = VERTEX_POINT ( 'NONE', #259 ) ;
#67 = EDGE_LOOP ( 'NONE', ( #37, #333, #142, #7 ) ) ;
#68 = PERSON ( 'NEURÈENÝ', 'NEURÈENÝ', 'NEURÈENÝ', ('NEURÈENÝ'), ('NEURÈENÝ'), ('NEURÈENÝ') ) ;
#69 = CYLINDRICAL_SURFACE ( 'NONE', #22, 4.250000000000001776 ) ;
#70 = AXIS2_PLACEMENT_3D ( 'NONE', #204, #72, #284 ) ;
#71 = AXIS2_PLACEMENT_3D ( 'NONE', #212, #33, #262 ) ;
#72 = DIRECTION ( 'NONE',  ( -0.000000000000000000, 1.000000000000000000, -0.000000000000000000 ) ) ;
#73 = FACE_OUTER_BOUND ( 'NONE', #4, .T. ) ;
#74 = PRODUCT_DEFINITION ( 'NEZNÁMÝ', '', #154, #223 ) ;
#75 = CARTESIAN_POINT ( 'NONE',  ( 1.334865011070615048E-15, 4.099999999999990763, -10.90000000000000036 ) ) ;
#76 = PLANE ( 'NONE',  #47 ) ;
#77 = CYLINDRICAL_SURFACE ( 'NONE', #203, 10.90000000000000036 ) ;
#78 = EDGE_CURVE ( 'NONE', #66, #275, #303, .T. ) ;
#79 = DIRECTION ( 'NONE',  ( -0.000000000000000000, 1.000000000000000000, -0.000000000000000000 ) ) ;
#80 = CONICAL_SURFACE ( 'NONE', #277, 8.850000000000001421, 0.7853981633974492782 ) ;
#81 = CONICAL_SURFACE ( 'NONE', #41, 8.850000000000001421, 0.7853981633974492782 ) ;
#82 = FACE_BOUND ( 'NONE', #40, .T. ) ;
#83 = DIRECTION ( 'NONE',  ( -0.000000000000000000, 1.000000000000000000, -0.000000000000000000 ) ) ;
#84 = CC_DESIGN_APPROVAL ( #322, ( #207 ) ) ;
#85 = CALENDAR_DATE ( 2022, 27, 1 ) ;
#86 = ORIENTED_EDGE ( 'NONE', *, *, #28, .F. ) ;
#87 = PERSON_AND_ORGANIZATION ( #68, #126 ) ;
#88 = EDGE_LOOP ( 'NONE', ( #144, #199, #229, #172 ) ) ;
#89 = EDGE_CURVE ( 'NONE', #330, #278, #182, .T. ) ;
#90 = ADVANCED_FACE ( 'NONE', ( #73 ), #69, .F. ) ;
#91 = EDGE_LOOP ( 'NONE', ( #96, #301 ) ) ;
#92 = DATE_AND_TIME ( #85, #57 ) ;
#93 = VECTOR ( 'NONE', #83, 1000.000000000000000 ) ;
#94 = VERTEX_POINT ( 'NONE', #75 ) ;
#95 = APPROVAL_STATUS ( 'not_yet_approved' ) ;
#96 = ORIENTED_EDGE ( 'NONE', *, *, #124, .F. ) ;
#97 = LINE ( 'NONE', #255, #282 ) ;
#98 = CARTESIAN_POINT ( 'NONE',  ( 5.204748896376253657E-16, 15.11370832945262954, -4.250000000000001776 ) ) ;
#99 = APPROVAL_PERSON_ORGANIZATION ( #300, #113, #194 ) ;
#100 = DIRECTION ( 'NONE',  ( -0.000000000000000000, 1.000000000000000000, -0.000000000000000000 ) ) ;
#101 = CC_DESIGN_PERSON_AND_ORGANIZATION_ASSIGNMENT ( #42, #145, ( #154 ) ) ;
#102 = EDGE_CURVE ( 'NONE', #224, #94, #122, .T. ) ;
#103 = CARTESIAN_POINT ( 'NONE',  ( 0.000000000000000000, 15.11370832945262954, 0.000000000000000000 ) ) ;
#104 = CARTESIAN_POINT ( 'NONE',  ( 0.000000000000000000, 4.099999999999990763, 0.000000000000000000 ) ) ;
#105 = PLANE ( 'NONE',  #159 ) ;
#106 = LINE ( 'NONE', #191, #309 ) ;
#107 = CARTESIAN_POINT ( 'NONE',  ( 0.000000000000000000, 4.700000000000001066, 10.90000000000000036 ) ) ;
#108 = AXIS2_PLACEMENT_3D ( 'NONE', #104, #205, #208 ) ;
#109 = CARTESIAN_POINT ( 'NONE',  ( 0.000000000000000000, 15.11370832945262954, 0.000000000000000000 ) ) ;
#110 = DIRECTION ( 'NONE',  ( 0.000000000000000000, 0.000000000000000000, 1.000000000000000000 ) ) ;
#111 = ORIENTED_EDGE ( 'NONE', *, *, #151, .F. ) ;
#112 = ADVANCED_FACE ( 'NONE', ( #287 ), #238, .T. ) ;
#113 = APPROVAL ( #95, 'NEURÈENÝ' ) ;
#114 = ORIENTED_EDGE ( 'NONE', *, *, #102, .F. ) ;
#115 = APPROVAL_DATE_TIME ( #8, #322 ) ;
#116 = ORIENTED_EDGE ( 'NONE', *, *, #55, .T. ) ;
#117 = ORIENTED_EDGE ( 'NONE', *, *, #225, .T. ) ;
#118 = COORDINATED_UNIVERSAL_TIME_OFFSET ( 1, 0, .AHEAD. ) ;
#119 = VECTOR ( 'NONE', #49, 1000.000000000000000 ) ;
#120 = VECTOR ( 'NONE', #160, 999.9999999999998863 ) ;
#121 = EDGE_LOOP ( 'NONE', ( #114, #298, #196, #140 ) ) ;
#122 = LINE ( 'NONE', #52, #16 ) ;
#123 = DIRECTION ( 'NONE',  ( -0.000000000000000000, 1.000000000000000000, 0.000000000000000000 ) ) ;
#124 = EDGE_CURVE ( 'NONE', #43, #224, #213, .T. ) ;
#125 = LINE ( 'NONE', #98, #249 ) ;
#126 = ORGANIZATION ( 'NEURÈENÝ', 'NEURÈENÝ', '' ) ;
#127 = DIRECTION ( 'NONE',  ( -0.000000000000000000, 1.000000000000000000, -0.000000000000000000 ) ) ;
#128 = ORIENTED_EDGE ( 'NONE', *, *, #272, .F. ) ;
#129 = APPLICATION_CONTEXT ( 'configuration controlled 3d designs of mechanical parts and assemblies' ) ;
#130 = DIRECTION ( 'NONE',  ( 0.000000000000000000, 0.000000000000000000, 1.000000000000000000 ) ) ;
#131 = DIRECTION ( 'NONE',  ( -0.000000000000000000, 1.000000000000000000, -0.000000000000000000 ) ) ;
#132 = DIRECTION ( 'NONE',  ( 8.659560562354942719E-17, 0.7071067811865467956, -0.7071067811865483499 ) ) ;
#133 = CARTESIAN_POINT ( 'NONE',  ( 0.000000000000000000, -0.9999999999999991118, 0.000000000000000000 ) ) ;
#134 = ADVANCED_FACE ( 'NONE', ( #261, #177 ), #76, .F. ) ;
#135 = ADVANCED_FACE ( 'NONE', ( #315 ), #26, .T. ) ;
#136 = AXIS2_PLACEMENT_3D ( 'NONE', #54, #317, #266 ) ;
#137 = FACE_OUTER_BOUND ( 'NONE', #45, .T. ) ;
#138 = DIRECTION ( 'NONE',  ( 0.000000000000000000, 0.000000000000000000, 1.000000000000000000 ) ) ;
#139 = PERSON_AND_ORGANIZATION_ROLE ( 'creator' ) ;
#140 = ORIENTED_EDGE ( 'NONE', *, *, #56, .F. ) ;
#141 = COORDINATED_UNIVERSAL_TIME_OFFSET ( 1, 0, .AHEAD. ) ;
#142 = ORIENTED_EDGE ( 'NONE', *, *, #236, .F. ) ;
#143 = DATE_TIME_ROLE ( 'creation_date' ) ;
#144 = ORIENTED_EDGE ( 'NONE', *, *, #225, .F. ) ;
#145 = PERSON_AND_ORGANIZATION_ROLE ( 'design_supplier' ) ;
#146 = EDGE_LOOP ( 'NONE', ( #324, #271, #193, #167 ) ) ;
#147 = AXIS2_PLACEMENT_3D ( 'NONE', #257, #155, #310 ) ;
#148 = AXIS2_PLACEMENT_3D ( 'NONE', #234, #100, #209 ) ;
#149 = CARTESIAN_POINT ( 'NONE',  ( 0.000000000000000000, -0.9999999999999991118, 5.800000000000001599 ) ) ;
#150 = DIRECTION ( 'NONE',  ( 8.659560562354941486E-17, 0.7071067811865469066, -0.7071067811865482389 ) ) ;
#151 = EDGE_CURVE ( 'NONE', #251, #302, #176, .T. ) ;
#152 = CARTESIAN_POINT ( 'NONE',  ( 0.000000000000000000, 4.700000000000001066, 0.000000000000000000 ) ) ;
#153 = ORIENTED_EDGE ( 'NONE', *, *, #236, .T. ) ;
#154 = PRODUCT_DEFINITION_FORMATION_WITH_SPECIFIED_SOURCE ( 'LIBOVOLNÝ', '', #38, .NOT_KNOWN. ) ;
#155 = DIRECTION ( 'NONE',  ( -0.000000000000000000, 1.000000000000000000, -0.000000000000000000 ) ) ;
#156 = FACE_OUTER_BOUND ( 'NONE', #175, .T. ) ;
#157 = APPROVAL_PERSON_ORGANIZATION ( #87, #322, #332 ) ;
#158 = CIRCLE ( 'NONE', #263, 10.90000000000000036 ) ;
#159 = AXIS2_PLACEMENT_3D ( 'NONE', #188, #27, #210 ) ;
#160 = DIRECTION ( 'NONE',  ( 0.000000000000000000, 0.7071067811865467956, 0.7071067811865483499 ) ) ;
#161 = CC_DESIGN_DATE_AND_TIME_ASSIGNMENT ( #247, #143, ( #74 ) ) ;
#162 =( LENGTH_UNIT ( ) NAMED_UNIT ( * ) SI_UNIT ( .MILLI., .METRE. ) );
#163 =( NAMED_UNIT ( * ) PLANE_ANGLE_UNIT ( ) SI_UNIT ( $, .RADIAN. ) );
#164 = PRODUCT_DEFINITION_SHAPE ( 'NONE', 'NONE',  #74 ) ;
#165 = DATE_AND_TIME ( #297, #63 ) ;
#166 = COORDINATED_UNIVERSAL_TIME_OFFSET ( 1, 0, .AHEAD. ) ;
#167 = ORIENTED_EDGE ( 'NONE', *, *, #12, .T. ) ;
#168 = CIRCLE ( 'NONE', #304, 8.850000000000001421 ) ;
#169 =( GEOMETRIC_REPRESENTATION_CONTEXT ( 3 ) GLOBAL_UNCERTAINTY_ASSIGNED_CONTEXT ( ( #36 ) ) GLOBAL_UNIT_ASSIGNED_CONTEXT ( ( #162, #163, #14 ) ) REPRESENTATION_CONTEXT ( 'NONE', 'WORKASPACE' ) );
#170 = CARTESIAN_POINT ( 'NONE',  ( 0.000000000000000000, 0.000000000000000000, 0.000000000000000000 ) ) ;
#171 = MANIFOLD_SOLID_BREP ( 'Revolve1', #331 ) ;
#172 = ORIENTED_EDGE ( 'NONE', *, *, #272, .T. ) ;
#173 = ADVANCED_FACE ( 'NONE', ( #50 ), #21, .F. ) ;
#174 = ORIENTED_EDGE ( 'NONE', *, *, #197, .F. ) ;
#175 = EDGE_LOOP ( 'NONE', ( #9, #15, #86, #248 ) ) ;
#176 = CIRCLE ( 'NONE', #70, 4.250000000000001776 ) ;
#177 = FACE_BOUND ( 'NONE', #328, .T. ) ;
#178 = DIRECTION ( 'NONE',  ( 0.000000000000000000, 0.7071067811865469066, 0.7071067811865482389 ) ) ;
#179 = DIRECTION ( 'NONE',  ( 0.000000000000000000, 0.000000000000000000, 1.000000000000000000 ) ) ;
#180 = CC_DESIGN_SECURITY_CLASSIFICATION ( #207, ( #154 ) ) ;
#181 = AXIS2_PLACEMENT_3D ( 'NONE', #206, #235, #283 ) ;
#182 = LINE ( 'NONE', #286, #119 ) ;
#183 = DIRECTION ( 'NONE',  ( -0.000000000000000000, 1.000000000000000000, -0.000000000000000000 ) ) ;
#184 = CARTESIAN_POINT ( 'NONE',  ( 0.000000000000000000, 15.11370832945262954, 4.250000000000001776 ) ) ;
#185 = CARTESIAN_POINT ( 'NONE',  ( 0.000000000000000000, 4.700000000000001066, 0.000000000000000000 ) ) ;
#186 = CIRCLE ( 'NONE', #108, 10.90000000000000036 ) ;
#187 = PRODUCT_RELATED_PRODUCT_CATEGORY ( 'detail', '', ( #38 ) ) ;
#188 = CARTESIAN_POINT ( 'NONE',  ( 8.850000000000001421, 4.700000000000001066, 0.000000000000000000 ) ) ;
#189 = CARTESIAN_POINT ( 'NONE',  ( 1.022580077288039907E-15, -0.9999999999999991118, -5.800000000000001599 ) ) ;
#190 = CC_DESIGN_APPROVAL ( #299, ( #154 ) ) ;
#191 = CARTESIAN_POINT ( 'NONE',  ( 1.334865011070615048E-15, 15.11370832945262954, -10.90000000000000036 ) ) ;
#192 = VECTOR ( 'NONE', #132, 999.9999999999998863 ) ;
#193 = ORIENTED_EDGE ( 'NONE', *, *, #348, .T. ) ;
#194 = APPROVAL_ROLE ( '' ) ;
#195 = ORIENTED_EDGE ( 'NONE', *, *, #78, .T. ) ;
#196 = ORIENTED_EDGE ( 'NONE', *, *, #13, .T. ) ;
#197 = EDGE_CURVE ( 'NONE', #307, #275, #53, .T. ) ;
#198 = DATE_AND_TIME ( #270, #335 ) ;
#199 = ORIENTED_EDGE ( 'NONE', *, *, #12, .F. ) ;
#200 = VERTEX_POINT ( 'NONE', #264 ) ;
#201 = EDGE_CURVE ( 'NONE', #11, #278, #344, .T. ) ;
#202 = DIRECTION ( 'NONE',  ( 0.000000000000000000, 0.000000000000000000, 1.000000000000000000 ) ) ;
#203 = AXIS2_PLACEMENT_3D ( 'NONE', #109, #79, #110 ) ;
#204 = CARTESIAN_POINT ( 'NONE',  ( 0.000000000000000000, -0.9999999999999991118, 0.000000000000000000 ) ) ;
#205 = DIRECTION ( 'NONE',  ( -0.000000000000000000, 1.000000000000000000, -0.000000000000000000 ) ) ;
#206 = CARTESIAN_POINT ( 'NONE',  ( 0.000000000000000000, 0.1000000000000098033, 0.000000000000000000 ) ) ;
#207 = SECURITY_CLASSIFICATION ( '', '', #228 ) ;
#208 = DIRECTION ( 'NONE',  ( 0.000000000000000000, 0.000000000000000000, 1.000000000000000000 ) ) ;
#209 = DIRECTION ( 'NONE',  ( 0.000000000000000000, 0.000000000000000000, 1.000000000000000000 ) ) ;
#210 = DIRECTION ( 'NONE',  ( 0.000000000000000000, -0.000000000000000000, -1.000000000000000000 ) ) ;
#211 = CC_DESIGN_PERSON_AND_ORGANIZATION_ASSIGNMENT ( #325, #139, ( #74 ) ) ;
#212 = CARTESIAN_POINT ( 'NONE',  ( 0.000000000000000000, -0.9999999999999991118, 0.000000000000000000 ) ) ;
#213 = CIRCLE ( 'NONE', #147, 5.800000000000001599 ) ;
#214 = LOCAL_TIME ( 13, 22, 2.000000000000000000, #118 ) ;
#215 = CARTESIAN_POINT ( 'NONE',  ( 0.000000000000000000, 4.099999999999990763, 10.90000000000000036 ) ) ;
#216 = DIRECTION ( 'NONE',  ( 0.000000000000000000, 0.000000000000000000, 1.000000000000000000 ) ) ;
#217 = APPROVAL_STATUS ( 'not_yet_approved' ) ;
#218 = EDGE_LOOP ( 'NONE', ( #221, #253, #60, #246 ) ) ;
#219 = AXIS2_PLACEMENT_3D ( 'NONE', #231, #183, #337 ) ;
#220 = CIRCLE ( 'NONE', #71, 4.250000000000001776 ) ;
#221 = ORIENTED_EDGE ( 'NONE', *, *, #285, .F. ) ;
#222 = SHAPE_DEFINITION_REPRESENTATION ( #164, #233 ) ;
#223 = DESIGN_CONTEXT ( 'detailed design', #295, 'design' ) ;
#224 = VERTEX_POINT ( 'NONE', #189 ) ;
#225 = EDGE_CURVE ( 'NONE', #200, #66, #316, .T. ) ;
#226 = DIRECTION ( 'NONE',  ( 1.000000000000000000, 0.000000000000000000, 0.000000000000000000 ) ) ;
#227 = AXIS2_PLACEMENT_3D ( 'NONE', #133, #3, #216 ) ;
#228 = SECURITY_CLASSIFICATION_LEVEL ( 'unclassified' ) ;
#229 = ORIENTED_EDGE ( 'NONE', *, *, #197, .T. ) ;
#230 = CARTESIAN_POINT ( 'NONE',  ( 0.000000000000000000, 15.11370832945262954, 0.000000000000000000 ) ) ;
#231 = CARTESIAN_POINT ( 'NONE',  ( 0.000000000000000000, -0.9999999999999991118, 0.000000000000000000 ) ) ;
#232 = LOCAL_TIME ( 13, 22, 2.000000000000000000, #274 ) ;
#233 = ADVANCED_BREP_SHAPE_REPRESENTATION ( 'A14_08-washer', ( #171, #305 ), #169 ) ;
#234 = CARTESIAN_POINT ( 'NONE',  ( 0.000000000000000000, 15.11370832945262954, 0.000000000000000000 ) ) ;
#235 = DIRECTION ( 'NONE',  ( -0.000000000000000000, 1.000000000000000000, -0.000000000000000000 ) ) ;
#236 = EDGE_CURVE ( 'NONE', #278, #11, #48, .T. ) ;
#237 = CC_DESIGN_PERSON_AND_ORGANIZATION_ASSIGNMENT ( #279, #34, ( #38 ) ) ;
#238 = CYLINDRICAL_SURFACE ( 'NONE', #343, 10.90000000000000036 ) ;
#239 = DIRECTION ( 'NONE',  ( 0.000000000000000000, 0.000000000000000000, 1.000000000000000000 ) ) ;
#240 = CARTESIAN_POINT ( 'NONE',  ( 0.000000000000000000, -0.9999999999999991118, 4.250000000000001776 ) ) ;
#241 = DIRECTION ( 'NONE',  ( -0.000000000000000000, 1.000000000000000000, -0.000000000000000000 ) ) ;
#242 = CARTESIAN_POINT ( 'NONE',  ( 5.204748896376253657E-16, -0.9999999999999991118, -4.250000000000001776 ) ) ;
#243 = AXIS2_PLACEMENT_3D ( 'NONE', #314, #30, #290 ) ;
#244 = CARTESIAN_POINT ( 'NONE',  ( 1.083812417245407876E-15, 4.700000000000001066, -8.850000000000001421 ) ) ;
#245 = MECHANICAL_CONTEXT ( 'NONE', #129, 'mechanical' ) ;
#246 = ORIENTED_EDGE ( 'NONE', *, *, #201, .F. ) ;
#247 = DATE_AND_TIME ( #59, #214 ) ;
#248 = ORIENTED_EDGE ( 'NONE', *, *, #13, .F. ) ;
#249 = VECTOR ( 'NONE', #127, 1000.000000000000000 ) ;
#250 = CALENDAR_DATE ( 2022, 27, 1 ) ;
#251 = VERTEX_POINT ( 'NONE', #242 ) ;
#252 = PERSON_AND_ORGANIZATION ( #68, #126 ) ;
#253 = ORIENTED_EDGE ( 'NONE', *, *, #56, .T. ) ;
#254 = EDGE_LOOP ( 'NONE', ( #306, #117, #195, #174 ) ) ;
#255 = CARTESIAN_POINT ( 'NONE',  ( 0.000000000000000000, -0.9999999999999991118, 5.800000000000001599 ) ) ;
#256 = DIRECTION ( 'NONE',  ( -0.000000000000000000, 1.000000000000000000, -0.000000000000000000 ) ) ;
#257 = CARTESIAN_POINT ( 'NONE',  ( 0.000000000000000000, -0.9999999999999991118, 0.000000000000000000 ) ) ;
#258 = AXIS2_PLACEMENT_3D ( 'NONE', #51, #341, #179 ) ;
#259 = CARTESIAN_POINT ( 'NONE',  ( 1.083812417245407876E-15, 4.700000000000001066, -8.850000000000001421 ) ) ;
#260 = ADVANCED_FACE ( 'NONE', ( #345 ), #80, .F. ) ;
#261 = FACE_OUTER_BOUND ( 'NONE', #91, .T. ) ;
#262 = DIRECTION ( 'NONE',  ( 0.000000000000000000, 0.000000000000000000, 1.000000000000000000 ) ) ;
#263 = AXIS2_PLACEMENT_3D ( 'NONE', #288, #340, #202 ) ;
#264 = CARTESIAN_POINT ( 'NONE',  ( 8.021436534415166206E-16, 0.1000000000000098033, -4.250000000000001776 ) ) ;
#265 = DIRECTION ( 'NONE',  ( 0.000000000000000000, 0.000000000000000000, 1.000000000000000000 ) ) ;
#266 = DIRECTION ( 'NONE',  ( 0.000000000000000000, 0.000000000000000000, 1.000000000000000000 ) ) ;
#267 = CARTESIAN_POINT ( 'NONE',  ( 0.000000000000000000, 4.700000000000001066, 0.000000000000000000 ) ) ;
#268 = AXIS2_PLACEMENT_3D ( 'NONE', #152, #313, #308 ) ;
#269 = PERSON_AND_ORGANIZATION ( #68, #126 ) ;
#270 = CALENDAR_DATE ( 2022, 27, 1 ) ;
#271 = ORIENTED_EDGE ( 'NONE', *, *, #311, .F. ) ;
#272 = EDGE_CURVE ( 'NONE', #275, #66, #168, .T. ) ;
#273 = CC_DESIGN_PERSON_AND_ORGANIZATION_ASSIGNMENT ( #65, #44, ( #154 ) ) ;
#274 = COORDINATED_UNIVERSAL_TIME_OFFSET ( 1, 0, .AHEAD. ) ;
#275 = VERTEX_POINT ( 'NONE', #31 ) ;
#276 = CIRCLE ( 'NONE', #181, 4.250000000000001776 ) ;
#277 = AXIS2_PLACEMENT_3D ( 'NONE', #347, #241, #130 ) ;
#278 = VERTEX_POINT ( 'NONE', #107 ) ;
#279 = PERSON_AND_ORGANIZATION ( #68, #126 ) ;
#280 = ORIENTED_EDGE ( 'NONE', *, *, #201, .T. ) ;
#281 = ORIENTED_EDGE ( 'NONE', *, *, #311, .T. ) ;
#282 = VECTOR ( 'NONE', #178, 999.9999999999998863 ) ;
#283 = DIRECTION ( 'NONE',  ( 0.000000000000000000, 0.000000000000000000, 1.000000000000000000 ) ) ;
#284 = DIRECTION ( 'NONE',  ( 0.000000000000000000, 0.000000000000000000, 1.000000000000000000 ) ) ;
#285 = EDGE_CURVE ( 'NONE', #94, #11, #106, .T. ) ;
#286 = CARTESIAN_POINT ( 'NONE',  ( 0.000000000000000000, 15.11370832945262954, 10.90000000000000036 ) ) ;
#287 = FACE_OUTER_BOUND ( 'NONE', #67, .T. ) ;
#288 = CARTESIAN_POINT ( 'NONE',  ( 0.000000000000000000, 4.099999999999990763, 0.000000000000000000 ) ) ;
#289 = FACE_OUTER_BOUND ( 'NONE', #254, .T. ) ;
#290 = DIRECTION ( 'NONE',  ( 0.000000000000000000, 0.000000000000000000, 1.000000000000000000 ) ) ;
#291 = DIRECTION ( 'NONE',  ( 0.000000000000000000, 0.000000000000000000, 1.000000000000000000 ) ) ;
#292 = EDGE_CURVE ( 'NONE', #224, #43, #6, .T. ) ;
#293 = ADVANCED_FACE ( 'NONE', ( #156 ), #32, .T. ) ;
#294 = CARTESIAN_POINT ( 'NONE',  ( 0.000000000000000000, 0.1000000000000098033, 4.250000000000001776 ) ) ;
#295 = APPLICATION_CONTEXT ( 'configuration controlled 3d designs of mechanical parts and assemblies' ) ;
#296 = APPROVAL_DATE_TIME ( #92, #113 ) ;
#297 = CALENDAR_DATE ( 2022, 27, 1 ) ;
#298 = ORIENTED_EDGE ( 'NONE', *, *, #292, .T. ) ;
#299 = APPROVAL ( #217, 'NEURÈENÝ' ) ;
#300 = PERSON_AND_ORGANIZATION ( #68, #126 ) ;
#301 = ORIENTED_EDGE ( 'NONE', *, *, #292, .F. ) ;
#302 = VERTEX_POINT ( 'NONE', #240 ) ;
#303 = CIRCLE ( 'NONE', #268, 8.850000000000001421 ) ;
#304 = AXIS2_PLACEMENT_3D ( 'NONE', #267, #1, #265 ) ;
#305 = AXIS2_PLACEMENT_3D ( 'NONE', #170, #138, #226 ) ;
#306 = ORIENTED_EDGE ( 'NONE', *, *, #55, .F. ) ;
#307 = VERTEX_POINT ( 'NONE', #294 ) ;
#308 = DIRECTION ( 'NONE',  ( 0.000000000000000000, 0.000000000000000000, 1.000000000000000000 ) ) ;
#309 = VECTOR ( 'NONE', #131, 1000.000000000000000 ) ;
#310 = DIRECTION ( 'NONE',  ( 0.000000000000000000, 0.000000000000000000, 1.000000000000000000 ) ) ;
#311 = EDGE_CURVE ( 'NONE', #302, #251, #220, .T. ) ;
#312 = CC_DESIGN_DATE_AND_TIME_ASSIGNMENT ( #165, #5, ( #207 ) ) ;
#313 = DIRECTION ( 'NONE',  ( -0.000000000000000000, 1.000000000000000000, -0.000000000000000000 ) ) ;
#314 = CARTESIAN_POINT ( 'NONE',  ( 0.000000000000000000, -0.9999999999999991118, 0.000000000000000000 ) ) ;
#315 = FACE_OUTER_BOUND ( 'NONE', #121, .T. ) ;
#316 = LINE ( 'NONE', #244, #192 ) ;
#317 = DIRECTION ( 'NONE',  ( -0.000000000000000000, 1.000000000000000000, -0.000000000000000000 ) ) ;
#318 = CARTESIAN_POINT ( 'NONE',  ( 0.000000000000000000, 4.700000000000001066, 0.000000000000000000 ) ) ;
#319 = CC_DESIGN_APPROVAL ( #113, ( #74 ) ) ;
#320 = DIRECTION ( 'NONE',  ( -0.000000000000000000, 1.000000000000000000, -0.000000000000000000 ) ) ;
#321 = LINE ( 'NONE', #184, #93 ) ;
#322 = APPROVAL ( #61, 'NEURÈENÝ' ) ;
#323 = COORDINATED_UNIVERSAL_TIME_OFFSET ( 1, 0, .AHEAD. ) ;
#324 = ORIENTED_EDGE ( 'NONE', *, *, #19, .F. ) ;
#325 = PERSON_AND_ORGANIZATION ( #68, #126 ) ;
#326 = ORIENTED_EDGE ( 'NONE', *, *, #78, .F. ) ;
#327 = APPROVAL_DATE_TIME ( #198, #299 ) ;
#328 = EDGE_LOOP ( 'NONE', ( #281, #62 ) ) ;
#329 = APPLICATION_PROTOCOL_DEFINITION ( 'international standard', 'config_control_design', 1994, #295 ) ;
#330 = VERTEX_POINT ( 'NONE', #215 ) ;
#331 = CLOSED_SHELL ( 'NONE', ( #112, #293, #90, #349, #260, #173, #134, #135, #338, #336 ) ) ;
#332 = APPROVAL_ROLE ( '' ) ;
#333 = ORIENTED_EDGE ( 'NONE', *, *, #285, .T. ) ;
#334 = DIRECTION ( 'NONE',  ( 0.000000000000000000, 0.000000000000000000, 1.000000000000000000 ) ) ;
#335 = LOCAL_TIME ( 13, 22, 2.000000000000000000, #141 ) ;
#336 = ADVANCED_FACE ( 'NONE', ( #82, #137 ), #105, .F. ) ;
#337 = DIRECTION ( 'NONE',  ( 0.000000000000000000, 0.000000000000000000, 1.000000000000000000 ) ) ;
#338 = ADVANCED_FACE ( 'NONE', ( #58 ), #77, .T. ) ;
#339 = CIRCLE ( 'NONE', #258, 4.250000000000001776 ) ;
#340 = DIRECTION ( 'NONE',  ( -0.000000000000000000, 1.000000000000000000, -0.000000000000000000 ) ) ;
#341 = DIRECTION ( 'NONE',  ( -0.000000000000000000, 1.000000000000000000, -0.000000000000000000 ) ) ;
#342 = DIRECTION ( 'NONE',  ( 0.000000000000000000, 0.000000000000000000, 1.000000000000000000 ) ) ;
#343 = AXIS2_PLACEMENT_3D ( 'NONE', #230, #256, #334 ) ;
#344 = CIRCLE ( 'NONE', #136, 10.90000000000000036 ) ;
#345 = FACE_OUTER_BOUND ( 'NONE', #88, .T. ) ;
#346 = CARTESIAN_POINT ( 'NONE',  ( 0.000000000000000000, 4.700000000000001066, 8.850000000000001421 ) ) ;
#347 = CARTESIAN_POINT ( 'NONE',  ( 0.000000000000000000, 4.700000000000001066, 0.000000000000000000 ) ) ;
#348 = EDGE_CURVE ( 'NONE', #302, #307, #321, .T. ) ;
#349 = ADVANCED_FACE ( 'NONE', ( #289 ), #81, .F. ) ;
ENDSEC;
END-ISO-10303-21;
