ISO-10303-21;
HEADER;
FILE_DESCRIPTION (( 'STEP AP203' ),
    '1' );
FILE_NAME ('A_42,4x2-22-000.STEP',
    '2022-03-10T07:43:04',
    ( '' ),
    ( '' ),
    'SwSTEP 2.0',
    'SolidWorks 2019',
    '' );
FILE_SCHEMA (( 'CONFIG_CONTROL_DESIGN' ));
ENDSEC;

DATA;
#1 = PERSON_AND_ORGANIZATION ( #133, #224 ) ;
#2 = PERSON_AND_ORGANIZATION ( #133, #224 ) ;
#3 = ORIENTED_EDGE ( 'NONE', *, *, #29, .T. ) ;
#4 = EDGE_CURVE ( 'NONE', #154, #44, #233, .T. ) ;
#5 = ORIENTED_EDGE ( 'NONE', *, *, #99, .F. ) ;
#6 = AXIS2_PLACEMENT_3D ( 'NONE', #138, #28, #12 ) ;
#7 = ORIENTED_EDGE ( 'NONE', *, *, #189, .F. ) ;
#8 = ORIENTED_EDGE ( 'NONE', *, *, #19, .T. ) ;
#9 = CARTESIAN_POINT ( 'NONE',  ( -21.19999999999999929, 0.000000000000000000, 22.00000000000000000 ) ) ;
#10 = DIRECTION ( 'NONE',  ( 1.000000000000000000, 0.000000000000000000, 0.000000000000000000 ) ) ;
#11 = CC_DESIGN_DATE_AND_TIME_ASSIGNMENT ( #113, #226, ( #82 ) ) ;
#12 = DIRECTION ( 'NONE',  ( -1.000000000000000000, 0.000000000000000000, 0.000000000000000000 ) ) ;
#13 = CC_DESIGN_APPROVAL ( #230, ( #199 ) ) ;
#14 = FACE_OUTER_BOUND ( 'NONE', #95, .T. ) ;
#15 = CYLINDRICAL_SURFACE ( 'NONE', #6, 19.20000000000000284 ) ;
#16 = CC_DESIGN_PERSON_AND_ORGANIZATION_ASSIGNMENT ( #36, #20, ( #35 ) ) ;
#17 = LOCAL_TIME ( 8, 43, 4.000000000000000000, #24 ) ;
#18 = DIRECTION ( 'NONE',  ( 0.000000000000000000, 0.000000000000000000, 1.000000000000000000 ) ) ;
#19 = EDGE_CURVE ( 'NONE', #211, #185, #46, .T. ) ;
#20 = PERSON_AND_ORGANIZATION_ROLE ( 'design_owner' ) ;
#21 = PERSON_AND_ORGANIZATION_ROLE ( 'creator' ) ;
#22 = APPROVAL_ROLE ( '' ) ;
#23 = ORIENTED_EDGE ( 'NONE', *, *, #99, .T. ) ;
#24 = COORDINATED_UNIVERSAL_TIME_OFFSET ( 1, 0, .AHEAD. ) ;
#25 = EDGE_LOOP ( 'NONE', ( #231, #3, #118, #62 ) ) ;
#26 = ORIENTED_EDGE ( 'NONE', *, *, #189, .T. ) ;
#27 = DIRECTION ( 'NONE',  ( -1.000000000000000000, 0.000000000000000000, 0.000000000000000000 ) ) ;
#28 = DIRECTION ( 'NONE',  ( -0.000000000000000000, -0.000000000000000000, -1.000000000000000000 ) ) ;
#29 = EDGE_CURVE ( 'NONE', #44, #154, #179, .T. ) ;
#30 = FACE_OUTER_BOUND ( 'NONE', #173, .T. ) ;
#31 = AXIS2_PLACEMENT_3D ( 'NONE', #157, #125, #236 ) ;
#32 = DIRECTION ( 'NONE',  ( 1.000000000000000000, 0.000000000000000000, 0.000000000000000000 ) ) ;
#33 =( GEOMETRIC_REPRESENTATION_CONTEXT ( 3 ) GLOBAL_UNCERTAINTY_ASSIGNED_CONTEXT ( ( #65 ) ) GLOBAL_UNIT_ASSIGNED_CONTEXT ( ( #206, #247, #221 ) ) REPRESENTATION_CONTEXT ( 'NONE', 'WORKASPACE' ) );
#34 = DIRECTION ( 'NONE',  ( 1.000000000000000000, 0.000000000000000000, -0.000000000000000000 ) ) ;
#35 = PRODUCT ( 'A_42,4x2-22-000', 'A_42,4x2-22-000', '', ( #38 ) ) ;
#36 = PERSON_AND_ORGANIZATION ( #133, #224 ) ;
#37 = DIRECTION ( 'NONE',  ( -0.000000000000000000, -0.000000000000000000, -1.000000000000000000 ) ) ;
#38 = MECHANICAL_CONTEXT ( 'NONE', #241, 'mechanical' ) ;
#39 = CALENDAR_DATE ( 2022, 10, 3 ) ;
#40 = AXIS2_PLACEMENT_3D ( 'NONE', #177, #142, #32 ) ;
#41 = CC_DESIGN_PERSON_AND_ORGANIZATION_ASSIGNMENT ( #91, #21, ( #199 ) ) ;
#42 = EDGE_LOOP ( 'NONE', ( #64, #212, #155, #83 ) ) ;
#43 = VERTEX_POINT ( 'NONE', #102 ) ;
#44 = VERTEX_POINT ( 'NONE', #87 ) ;
#45 = ORIENTED_EDGE ( 'NONE', *, *, #63, .T. ) ;
#46 = CIRCLE ( 'NONE', #74, 21.19999999999999929 ) ;
#47 = PLANE ( 'NONE',  #193 ) ;
#48 = CC_DESIGN_APPROVAL ( #214, ( #82 ) ) ;
#49 = ADVANCED_FACE ( 'NONE', ( #120 ), #67, .F. ) ;
#50 = CARTESIAN_POINT ( 'NONE',  ( 0.000000000000000000, 0.000000000000000000, 22.00000000000000000 ) ) ;
#51 = DIRECTION ( 'NONE',  ( -0.000000000000000000, -0.000000000000000000, -1.000000000000000000 ) ) ;
#52 = FACE_BOUND ( 'NONE', #156, .T. ) ;
#53 = CARTESIAN_POINT ( 'NONE',  ( 0.000000000000000000, 0.000000000000000000, 22.00000000000000000 ) ) ;
#54 = COORDINATED_UNIVERSAL_TIME_OFFSET ( 1, 0, .AHEAD. ) ;
#55 = CALENDAR_DATE ( 2022, 10, 3 ) ;
#56 = CALENDAR_DATE ( 2022, 10, 3 ) ;
#57 = ADVANCED_FACE ( 'NONE', ( #200 ), #197, .T. ) ;
#58 = COORDINATED_UNIVERSAL_TIME_OFFSET ( 1, 0, .AHEAD. ) ;
#59 = ADVANCED_FACE ( 'NONE', ( #124, #52 ), #216, .T. ) ;
#60 = DATE_AND_TIME ( #96, #17 ) ;
#61 = VECTOR ( 'NONE', #176, 1000.000000000000000 ) ;
#62 = ORIENTED_EDGE ( 'NONE', *, *, #149, .F. ) ;
#63 = EDGE_CURVE ( 'NONE', #185, #152, #240, .T. ) ;
#64 = ORIENTED_EDGE ( 'NONE', *, *, #4, .T. ) ;
#65 = UNCERTAINTY_MEASURE_WITH_UNIT (LENGTH_MEASURE( 1.000000000000000082E-05 ), #206, 'distance_accuracy_value', 'NONE');
#66 = ORIENTED_EDGE ( 'NONE', *, *, #29, .F. ) ;
#67 = CYLINDRICAL_SURFACE ( 'NONE', #108, 19.20000000000000284 ) ;
#68 = DESIGN_CONTEXT ( 'detailed design', #97, 'design' ) ;
#69 = CARTESIAN_POINT ( 'NONE',  ( 0.000000000000000000, 0.000000000000000000, 22.00000000000000000 ) ) ;
#70 = APPROVAL_PERSON_ORGANIZATION ( #2, #243, #22 ) ;
#71 = CARTESIAN_POINT ( 'NONE',  ( 0.000000000000000000, 0.000000000000000000, 0.000000000000000000 ) ) ;
#72 = CARTESIAN_POINT ( 'NONE',  ( -19.20000000000000284, 0.000000000000000000, 22.00000000000000000 ) ) ;
#73 = DIRECTION ( 'NONE',  ( 0.000000000000000000, 0.000000000000000000, 1.000000000000000000 ) ) ;
#74 = AXIS2_PLACEMENT_3D ( 'NONE', #210, #98, #153 ) ;
#75 = ADVANCED_FACE ( 'NONE', ( #195 ), #15, .F. ) ;
#76 = APPROVAL_ROLE ( '' ) ;
#77 = AXIS2_PLACEMENT_3D ( 'NONE', #107, #242, #194 ) ;
#78 = DATE_TIME_ROLE ( 'classification_date' ) ;
#79 = APPROVAL_DATE_TIME ( #60, #243 ) ;
#80 = AXIS2_PLACEMENT_3D ( 'NONE', #146, #18, #92 ) ;
#81 = DIRECTION ( 'NONE',  ( 0.000000000000000000, 0.000000000000000000, 1.000000000000000000 ) ) ;
#82 = PRODUCT_DEFINITION ( 'NEZNÁMÝ', '', #199, #68 ) ;
#83 = ORIENTED_EDGE ( 'NONE', *, *, #144, .F. ) ;
#84 = EDGE_CURVE ( 'NONE', #44, #43, #89, .T. ) ;
#85 = DIRECTION ( 'NONE',  ( 0.000000000000000000, 0.000000000000000000, 1.000000000000000000 ) ) ;
#86 = CARTESIAN_POINT ( 'NONE',  ( 21.19999999999999929, 2.596251214192388770E-15, 0.000000000000000000 ) ) ;
#87 = CARTESIAN_POINT ( 'NONE',  ( 19.20000000000000284, 2.351321854362918079E-15, 22.00000000000000000 ) ) ;
#88 = CARTESIAN_POINT ( 'NONE',  ( 0.000000000000000000, 0.000000000000000000, 0.000000000000000000 ) ) ;
#89 = LINE ( 'NONE', #141, #201 ) ;
#90 = CIRCLE ( 'NONE', #132, 19.20000000000000284 ) ;
#91 = PERSON_AND_ORGANIZATION ( #133, #224 ) ;
#92 = DIRECTION ( 'NONE',  ( 1.000000000000000000, 0.000000000000000000, 0.000000000000000000 ) ) ;
#93 = PERSON_AND_ORGANIZATION ( #133, #224 ) ;
#94 = MANIFOLD_SOLID_BREP ( 'Vysunout tenkostìnný1', #151 ) ;
#95 = EDGE_LOOP ( 'NONE', ( #5, #115 ) ) ;
#96 = CALENDAR_DATE ( 2022, 10, 3 ) ;
#97 = APPLICATION_CONTEXT ( 'configuration controlled 3d designs of mechanical parts and assemblies' ) ;
#98 = DIRECTION ( 'NONE',  ( 0.000000000000000000, 0.000000000000000000, 1.000000000000000000 ) ) ;
#99 = EDGE_CURVE ( 'NONE', #213, #152, #139, .T. ) ;
#100 = EDGE_LOOP ( 'NONE', ( #137, #232, #190, #23 ) ) ;
#101 = DIRECTION ( 'NONE',  ( -0.000000000000000000, -0.000000000000000000, -1.000000000000000000 ) ) ;
#102 = CARTESIAN_POINT ( 'NONE',  ( 19.20000000000000284, 2.351321854362918079E-15, 0.000000000000000000 ) ) ;
#103 = AXIS2_PLACEMENT_3D ( 'NONE', #53, #198, #34 ) ;
#104 = CARTESIAN_POINT ( 'NONE',  ( 21.19999999999999929, 2.596251214192388770E-15, 22.00000000000000000 ) ) ;
#105 = EDGE_CURVE ( 'NONE', #116, #43, #90, .T. ) ;
#106 = DIRECTION ( 'NONE',  ( 1.000000000000000000, 0.000000000000000000, 0.000000000000000000 ) ) ;
#107 = CARTESIAN_POINT ( 'NONE',  ( 0.000000000000000000, 0.000000000000000000, 22.00000000000000000 ) ) ;
#108 = AXIS2_PLACEMENT_3D ( 'NONE', #69, #101, #238 ) ;
#109 = COORDINATED_UNIVERSAL_TIME_OFFSET ( 1, 0, .AHEAD. ) ;
#110 = APPROVAL_STATUS ( 'not_yet_approved' ) ;
#111 = CC_DESIGN_SECURITY_CLASSIFICATION ( #112, ( #199 ) ) ;
#112 = SECURITY_CLASSIFICATION ( '', '', #167 ) ;
#113 = DATE_AND_TIME ( #55, #140 ) ;
#114 = APPROVAL_PERSON_ORGANIZATION ( #148, #214, #76 ) ;
#115 = ORIENTED_EDGE ( 'NONE', *, *, #158, .F. ) ;
#116 = VERTEX_POINT ( 'NONE', #161 ) ;
#117 = LOCAL_TIME ( 8, 43, 4.000000000000000000, #207 ) ;
#118 = ORIENTED_EDGE ( 'NONE', *, *, #144, .T. ) ;
#119 = ORIENTED_EDGE ( 'NONE', *, *, #165, .F. ) ;
#120 = FACE_OUTER_BOUND ( 'NONE', #25, .T. ) ;
#121 = DIRECTION ( 'NONE',  ( -0.000000000000000000, -0.000000000000000000, -1.000000000000000000 ) ) ;
#122 = FACE_BOUND ( 'NONE', #187, .T. ) ;
#123 = CC_DESIGN_PERSON_AND_ORGANIZATION_ASSIGNMENT ( #93, #181, ( #199 ) ) ;
#124 = FACE_OUTER_BOUND ( 'NONE', #135, .T. ) ;
#125 = DIRECTION ( 'NONE',  ( 0.000000000000000000, 0.000000000000000000, 1.000000000000000000 ) ) ;
#126 = CC_DESIGN_DATE_AND_TIME_ASSIGNMENT ( #202, #78, ( #112 ) ) ;
#127 = PERSON_AND_ORGANIZATION_ROLE ( 'creator' ) ;
#128 = AXIS2_PLACEMENT_3D ( 'NONE', #223, #37, #183 ) ;
#129 = CARTESIAN_POINT ( 'NONE',  ( -21.19999999999999929, 0.000000000000000000, 22.00000000000000000 ) ) ;
#130 = APPLICATION_PROTOCOL_DEFINITION ( 'international standard', 'config_control_design', 1994, #241 ) ;
#131 = PERSON_AND_ORGANIZATION ( #133, #224 ) ;
#132 = AXIS2_PLACEMENT_3D ( 'NONE', #160, #218, #106 ) ;
#133 = PERSON ( 'NEURÈENÝ', 'NEURÈENÝ', 'NEURÈENÝ', ('NEURÈENÝ'), ('NEURÈENÝ'), ('NEURÈENÝ') ) ;
#134 = DIRECTION ( 'NONE',  ( 1.000000000000000000, 0.000000000000000000, 0.000000000000000000 ) ) ;
#135 = EDGE_LOOP ( 'NONE', ( #8, #26 ) ) ;
#136 = AXIS2_PLACEMENT_3D ( 'NONE', #88, #73, #215 ) ;
#137 = ORIENTED_EDGE ( 'NONE', *, *, #63, .F. ) ;
#138 = CARTESIAN_POINT ( 'NONE',  ( 0.000000000000000000, 0.000000000000000000, 22.00000000000000000 ) ) ;
#139 = CIRCLE ( 'NONE', #40, 21.19999999999999929 ) ;
#140 = LOCAL_TIME ( 8, 43, 4.000000000000000000, #58 ) ;
#141 = CARTESIAN_POINT ( 'NONE',  ( 19.20000000000000284, 2.351321854362918079E-15, 22.00000000000000000 ) ) ;
#142 = DIRECTION ( 'NONE',  ( 0.000000000000000000, 0.000000000000000000, 1.000000000000000000 ) ) ;
#143 = CARTESIAN_POINT ( 'NONE',  ( 21.19999999999999929, 2.596251214192388770E-15, 22.00000000000000000 ) ) ;
#144 = EDGE_CURVE ( 'NONE', #154, #116, #159, .T. ) ;
#145 = PERSON_AND_ORGANIZATION_ROLE ( 'classification_officer' ) ;
#146 = CARTESIAN_POINT ( 'NONE',  ( 0.000000000000000000, 0.000000000000000000, 0.000000000000000000 ) ) ;
#147 = VECTOR ( 'NONE', #51, 1000.000000000000000 ) ;
#148 = PERSON_AND_ORGANIZATION ( #133, #224 ) ;
#149 = EDGE_CURVE ( 'NONE', #43, #116, #174, .T. ) ;
#150 = APPROVAL_DATE_TIME ( #166, #214 ) ;
#151 = CLOSED_SHELL ( 'NONE', ( #75, #204, #59, #172, #57, #49 ) ) ;
#152 = VERTEX_POINT ( 'NONE', #86 ) ;
#153 = DIRECTION ( 'NONE',  ( 1.000000000000000000, 0.000000000000000000, 0.000000000000000000 ) ) ;
#154 = VERTEX_POINT ( 'NONE', #72 ) ;
#155 = ORIENTED_EDGE ( 'NONE', *, *, #105, .F. ) ;
#156 = EDGE_LOOP ( 'NONE', ( #191, #66 ) ) ;
#157 = CARTESIAN_POINT ( 'NONE',  ( 0.000000000000000000, 0.000000000000000000, 22.00000000000000000 ) ) ;
#158 = EDGE_CURVE ( 'NONE', #152, #213, #237, .T. ) ;
#159 = LINE ( 'NONE', #220, #61 ) ;
#160 = CARTESIAN_POINT ( 'NONE',  ( 0.000000000000000000, 0.000000000000000000, 0.000000000000000000 ) ) ;
#161 = CARTESIAN_POINT ( 'NONE',  ( -19.20000000000000284, 0.000000000000000000, 0.000000000000000000 ) ) ;
#162 = CARTESIAN_POINT ( 'NONE',  ( 0.000000000000000000, 0.000000000000000000, 0.000000000000000000 ) ) ;
#163 = CALENDAR_DATE ( 2022, 10, 3 ) ;
#164 = CARTESIAN_POINT ( 'NONE',  ( -21.19999999999999929, 0.000000000000000000, 0.000000000000000000 ) ) ;
#165 = EDGE_CURVE ( 'NONE', #211, #213, #217, .T. ) ;
#166 = DATE_AND_TIME ( #56, #248 ) ;
#167 = SECURITY_CLASSIFICATION_LEVEL ( 'unclassified' ) ;
#168 = CC_DESIGN_PERSON_AND_ORGANIZATION_ASSIGNMENT ( #249, #127, ( #82 ) ) ;
#169 = ORIENTED_EDGE ( 'NONE', *, *, #158, .T. ) ;
#170 = CARTESIAN_POINT ( 'NONE',  ( 0.000000000000000000, 0.000000000000000000, 22.00000000000000000 ) ) ;
#171 = LOCAL_TIME ( 8, 43, 4.000000000000000000, #54 ) ;
#172 = ADVANCED_FACE ( 'NONE', ( #14, #122 ), #47, .F. ) ;
#173 = EDGE_LOOP ( 'NONE', ( #7, #45, #169, #119 ) ) ;
#174 = CIRCLE ( 'NONE', #208, 19.20000000000000284 ) ;
#175 = DIRECTION ( 'NONE',  ( -0.000000000000000000, -0.000000000000000000, -1.000000000000000000 ) ) ;
#176 = DIRECTION ( 'NONE',  ( -0.000000000000000000, -0.000000000000000000, -1.000000000000000000 ) ) ;
#177 = CARTESIAN_POINT ( 'NONE',  ( 0.000000000000000000, 0.000000000000000000, 0.000000000000000000 ) ) ;
#178 = DIRECTION ( 'NONE',  ( 1.000000000000000000, 0.000000000000000000, -0.000000000000000000 ) ) ;
#179 = CIRCLE ( 'NONE', #77, 19.20000000000000284 ) ;
#180 = DIRECTION ( 'NONE',  ( -0.000000000000000000, -0.000000000000000000, -1.000000000000000000 ) ) ;
#181 = PERSON_AND_ORGANIZATION_ROLE ( 'design_supplier' ) ;
#182 = APPROVAL_DATE_TIME ( #184, #230 ) ;
#183 = DIRECTION ( 'NONE',  ( -1.000000000000000000, 0.000000000000000000, 0.000000000000000000 ) ) ;
#184 = DATE_AND_TIME ( #39, #117 ) ;
#185 = VERTEX_POINT ( 'NONE', #143 ) ;
#186 = ORIENTED_EDGE ( 'NONE', *, *, #149, .T. ) ;
#187 = EDGE_LOOP ( 'NONE', ( #229, #186 ) ) ;
#188 = APPROVAL_PERSON_ORGANIZATION ( #131, #230, #203 ) ;
#189 = EDGE_CURVE ( 'NONE', #185, #211, #227, .T. ) ;
#190 = ORIENTED_EDGE ( 'NONE', *, *, #165, .T. ) ;
#191 = ORIENTED_EDGE ( 'NONE', *, *, #4, .F. ) ;
#192 = PRODUCT_RELATED_PRODUCT_CATEGORY ( 'detail', '', ( #35 ) ) ;
#193 = AXIS2_PLACEMENT_3D ( 'NONE', #71, #85, #178 ) ;
#194 = DIRECTION ( 'NONE',  ( 1.000000000000000000, 0.000000000000000000, 0.000000000000000000 ) ) ;
#195 = FACE_OUTER_BOUND ( 'NONE', #42, .T. ) ;
#196 = AXIS2_PLACEMENT_3D ( 'NONE', #50, #121, #27 ) ;
#197 = CYLINDRICAL_SURFACE ( 'NONE', #196, 21.19999999999999929 ) ;
#198 = DIRECTION ( 'NONE',  ( 0.000000000000000000, 0.000000000000000000, 1.000000000000000000 ) ) ;
#199 = PRODUCT_DEFINITION_FORMATION_WITH_SPECIFIED_SOURCE ( 'LIBOVOLNÝ', '', #35, .NOT_KNOWN. ) ;
#200 = FACE_OUTER_BOUND ( 'NONE', #100, .T. ) ;
#201 = VECTOR ( 'NONE', #175, 1000.000000000000000 ) ;
#202 = DATE_AND_TIME ( #163, #171 ) ;
#203 = APPROVAL_ROLE ( '' ) ;
#204 = ADVANCED_FACE ( 'NONE', ( #30 ), #205, .T. ) ;
#205 = CYLINDRICAL_SURFACE ( 'NONE', #128, 21.19999999999999929 ) ;
#206 =( LENGTH_UNIT ( ) NAMED_UNIT ( * ) SI_UNIT ( .MILLI., .METRE. ) );
#207 = COORDINATED_UNIVERSAL_TIME_OFFSET ( 1, 0, .AHEAD. ) ;
#208 = AXIS2_PLACEMENT_3D ( 'NONE', #162, #239, #10 ) ;
#209 = APPROVAL_STATUS ( 'not_yet_approved' ) ;
#210 = CARTESIAN_POINT ( 'NONE',  ( 0.000000000000000000, 0.000000000000000000, 22.00000000000000000 ) ) ;
#211 = VERTEX_POINT ( 'NONE', #129 ) ;
#212 = ORIENTED_EDGE ( 'NONE', *, *, #84, .T. ) ;
#213 = VERTEX_POINT ( 'NONE', #164 ) ;
#214 = APPROVAL ( #222, 'NEURÈENÝ' ) ;
#215 = DIRECTION ( 'NONE',  ( 1.000000000000000000, 0.000000000000000000, 0.000000000000000000 ) ) ;
#216 = PLANE ( 'NONE',  #103 ) ;
#217 = LINE ( 'NONE', #9, #147 ) ;
#218 = DIRECTION ( 'NONE',  ( 0.000000000000000000, 0.000000000000000000, 1.000000000000000000 ) ) ;
#219 = CC_DESIGN_PERSON_AND_ORGANIZATION_ASSIGNMENT ( #1, #145, ( #112 ) ) ;
#220 = CARTESIAN_POINT ( 'NONE',  ( -19.20000000000000284, 0.000000000000000000, 22.00000000000000000 ) ) ;
#221 =( NAMED_UNIT ( * ) SI_UNIT ( $, .STERADIAN. ) SOLID_ANGLE_UNIT ( ) );
#222 = APPROVAL_STATUS ( 'not_yet_approved' ) ;
#223 = CARTESIAN_POINT ( 'NONE',  ( 0.000000000000000000, 0.000000000000000000, 22.00000000000000000 ) ) ;
#224 = ORGANIZATION ( 'NEURÈENÝ', 'NEURÈENÝ', '' ) ;
#225 = APPLICATION_PROTOCOL_DEFINITION ( 'international standard', 'config_control_design', 1994, #97 ) ;
#226 = DATE_TIME_ROLE ( 'creation_date' ) ;
#227 = CIRCLE ( 'NONE', #31, 21.19999999999999929 ) ;
#228 = SHAPE_DEFINITION_REPRESENTATION ( #245, #234 ) ;
#229 = ORIENTED_EDGE ( 'NONE', *, *, #105, .T. ) ;
#230 = APPROVAL ( #110, 'NEURÈENÝ' ) ;
#231 = ORIENTED_EDGE ( 'NONE', *, *, #84, .F. ) ;
#232 = ORIENTED_EDGE ( 'NONE', *, *, #19, .F. ) ;
#233 = CIRCLE ( 'NONE', #246, 19.20000000000000284 ) ;
#234 = ADVANCED_BREP_SHAPE_REPRESENTATION ( 'A_42,4x2-22-000', ( #94, #80 ), #33 ) ;
#235 = VECTOR ( 'NONE', #180, 1000.000000000000000 ) ;
#236 = DIRECTION ( 'NONE',  ( 1.000000000000000000, 0.000000000000000000, 0.000000000000000000 ) ) ;
#237 = CIRCLE ( 'NONE', #136, 21.19999999999999929 ) ;
#238 = DIRECTION ( 'NONE',  ( -1.000000000000000000, 0.000000000000000000, 0.000000000000000000 ) ) ;
#239 = DIRECTION ( 'NONE',  ( 0.000000000000000000, 0.000000000000000000, 1.000000000000000000 ) ) ;
#240 = LINE ( 'NONE', #104, #235 ) ;
#241 = APPLICATION_CONTEXT ( 'configuration controlled 3d designs of mechanical parts and assemblies' ) ;
#242 = DIRECTION ( 'NONE',  ( 0.000000000000000000, 0.000000000000000000, 1.000000000000000000 ) ) ;
#243 = APPROVAL ( #209, 'NEURÈENÝ' ) ;
#244 = CC_DESIGN_APPROVAL ( #243, ( #112 ) ) ;
#245 = PRODUCT_DEFINITION_SHAPE ( 'NONE', 'NONE',  #82 ) ;
#246 = AXIS2_PLACEMENT_3D ( 'NONE', #170, #81, #134 ) ;
#247 =( NAMED_UNIT ( * ) PLANE_ANGLE_UNIT ( ) SI_UNIT ( $, .RADIAN. ) );
#248 = LOCAL_TIME ( 8, 43, 4.000000000000000000, #109 ) ;
#249 = PERSON_AND_ORGANIZATION ( #133, #224 ) ;
ENDSEC;
END-ISO-10303-21;
