ISO-10303-21;
HEADER;
FILE_DESCRIPTION (( 'STEP AP203' ),
    '1' );
FILE_NAME ('A_33,7x2-22-000.STEP',
    '2022-03-10T11:50:19',
    ( '' ),
    ( '' ),
    'SwSTEP 2.0',
    'SolidWorks 2019',
    '' );
FILE_SCHEMA (( 'CONFIG_CONTROL_DESIGN' ));
ENDSEC;

DATA;
#1 = DIRECTION ( 'NONE',  ( -1.000000000000000000, 0.000000000000000000, 0.000000000000000000 ) ) ;
#2 = DIRECTION ( 'NONE',  ( -0.000000000000000000, -0.000000000000000000, -1.000000000000000000 ) ) ;
#3 = COORDINATED_UNIVERSAL_TIME_OFFSET ( 1, 0, .AHEAD. ) ;
#4 = DIRECTION ( 'NONE',  ( 0.000000000000000000, 0.000000000000000000, 1.000000000000000000 ) ) ;
#5 = CC_DESIGN_APPROVAL ( #238, ( #189 ) ) ;
#6 = CALENDAR_DATE ( 2022, 10, 3 ) ;
#7 = PERSON_AND_ORGANIZATION ( #40, #186 ) ;
#8 = ORIENTED_EDGE ( 'NONE', *, *, #105, .T. ) ;
#9 = ORIENTED_EDGE ( 'NONE', *, *, #155, .T. ) ;
#10 = ORIENTED_EDGE ( 'NONE', *, *, #59, .F. ) ;
#11 = DIRECTION ( 'NONE',  ( 0.000000000000000000, 0.000000000000000000, 1.000000000000000000 ) ) ;
#12 = CYLINDRICAL_SURFACE ( 'NONE', #91, 14.84999999999999964 ) ;
#13 = EDGE_CURVE ( 'NONE', #23, #58, #198, .T. ) ;
#14 = DIRECTION ( 'NONE',  ( 1.000000000000000000, 0.000000000000000000, 0.000000000000000000 ) ) ;
#15 = APPLICATION_PROTOCOL_DEFINITION ( 'international standard', 'config_control_design', 1994, #208 ) ;
#16 = DIRECTION ( 'NONE',  ( 1.000000000000000000, 0.000000000000000000, 0.000000000000000000 ) ) ;
#17 = CARTESIAN_POINT ( 'NONE',  ( 0.000000000000000000, 0.000000000000000000, 0.000000000000000000 ) ) ;
#18 = CALENDAR_DATE ( 2022, 10, 3 ) ;
#19 = PERSON_AND_ORGANIZATION ( #40, #186 ) ;
#20 = DATE_AND_TIME ( #6, #146 ) ;
#21 = CIRCLE ( 'NONE', #116, 16.85000000000000142 ) ;
#22 = APPROVAL_DATE_TIME ( #232, #238 ) ;
#23 = VERTEX_POINT ( 'NONE', #202 ) ;
#24 = CC_DESIGN_SECURITY_CLASSIFICATION ( #211, ( #138 ) ) ;
#25 = ORIENTED_EDGE ( 'NONE', *, *, #219, .F. ) ;
#26 = CARTESIAN_POINT ( 'NONE',  ( 0.000000000000000000, 0.000000000000000000, 0.000000000000000000 ) ) ;
#27 = ADVANCED_FACE ( 'NONE', ( #162, #80 ), #39, .T. ) ;
#28 = DIRECTION ( 'NONE',  ( 0.000000000000000000, 0.000000000000000000, 1.000000000000000000 ) ) ;
#29 = ADVANCED_FACE ( 'NONE', ( #200 ), #135, .T. ) ;
#30 = DIRECTION ( 'NONE',  ( 0.000000000000000000, 0.000000000000000000, 1.000000000000000000 ) ) ;
#31 = DIRECTION ( 'NONE',  ( 0.000000000000000000, 0.000000000000000000, 1.000000000000000000 ) ) ;
#32 = DIRECTION ( 'NONE',  ( 0.000000000000000000, 0.000000000000000000, 1.000000000000000000 ) ) ;
#33 = APPROVAL_PERSON_ORGANIZATION ( #154, #130, #73 ) ;
#34 = CARTESIAN_POINT ( 'NONE',  ( 16.85000000000000142, 2.063529856563290244E-15, 0.000000000000000000 ) ) ;
#35 = PERSON_AND_ORGANIZATION_ROLE ( 'creator' ) ;
#36 = COORDINATED_UNIVERSAL_TIME_OFFSET ( 1, 0, .AHEAD. ) ;
#37 = ORIENTED_EDGE ( 'NONE', *, *, #193, .T. ) ;
#38 = DIRECTION ( 'NONE',  ( -0.000000000000000000, -0.000000000000000000, -1.000000000000000000 ) ) ;
#39 = PLANE ( 'NONE',  #41 ) ;
#40 = PERSON ( 'NEURÈENÝ', 'NEURÈENÝ', 'NEURÈENÝ', ('NEURÈENÝ'), ('NEURÈENÝ'), ('NEURÈENÝ') ) ;
#41 = AXIS2_PLACEMENT_3D ( 'NONE', #119, #11, #223 ) ;
#42 = DIRECTION ( 'NONE',  ( 1.000000000000000000, 0.000000000000000000, 0.000000000000000000 ) ) ;
#43 = EDGE_LOOP ( 'NONE', ( #77, #98, #37, #243 ) ) ;
#44 = MANIFOLD_SOLID_BREP ( 'Vysunout tenkostìnný1', #145 ) ;
#45 = ORIENTED_EDGE ( 'NONE', *, *, #13, .T. ) ;
#46 = AXIS2_PLACEMENT_3D ( 'NONE', #220, #38, #118 ) ;
#47 = CIRCLE ( 'NONE', #111, 16.85000000000000142 ) ;
#48 = APPROVAL_PERSON_ORGANIZATION ( #190, #238, #131 ) ;
#49 = CARTESIAN_POINT ( 'NONE',  ( 0.000000000000000000, 0.000000000000000000, 22.00000000000000000 ) ) ;
#50 = DIRECTION ( 'NONE',  ( -0.000000000000000000, -0.000000000000000000, -1.000000000000000000 ) ) ;
#51 = DIRECTION ( 'NONE',  ( 1.000000000000000000, 0.000000000000000000, 0.000000000000000000 ) ) ;
#52 = LOCAL_TIME ( 12, 50, 19.00000000000000000, #214 ) ;
#53 = CC_DESIGN_DATE_AND_TIME_ASSIGNMENT ( #57, #196, ( #189 ) ) ;
#54 = DIRECTION ( 'NONE',  ( 1.000000000000000000, 0.000000000000000000, 0.000000000000000000 ) ) ;
#55 = DATE_AND_TIME ( #235, #52 ) ;
#56 = APPLICATION_PROTOCOL_DEFINITION ( 'international standard', 'config_control_design', 1994, #170 ) ;
#57 = DATE_AND_TIME ( #18, #199 ) ;
#58 = VERTEX_POINT ( 'NONE', #163 ) ;
#59 = EDGE_CURVE ( 'NONE', #245, #216, #173, .T. ) ;
#60 = ORIENTED_EDGE ( 'NONE', *, *, #13, .F. ) ;
#61 = ORIENTED_EDGE ( 'NONE', *, *, #151, .T. ) ;
#62 = CARTESIAN_POINT ( 'NONE',  ( 0.000000000000000000, 0.000000000000000000, 0.000000000000000000 ) ) ;
#63 = AXIS2_PLACEMENT_3D ( 'NONE', #62, #139, #42 ) ;
#64 = CARTESIAN_POINT ( 'NONE',  ( 14.84999999999999964, 1.818600496733819553E-15, 22.00000000000000000 ) ) ;
#65 = DIRECTION ( 'NONE',  ( 1.000000000000000000, 0.000000000000000000, 0.000000000000000000 ) ) ;
#66 = LINE ( 'NONE', #85, #178 ) ;
#67 = CARTESIAN_POINT ( 'NONE',  ( 0.000000000000000000, 0.000000000000000000, 22.00000000000000000 ) ) ;
#68 = CARTESIAN_POINT ( 'NONE',  ( 0.000000000000000000, 0.000000000000000000, 22.00000000000000000 ) ) ;
#69 = ADVANCED_FACE ( 'NONE', ( #120, #82 ), #201, .F. ) ;
#70 = ADVANCED_FACE ( 'NONE', ( #182 ), #12, .F. ) ;
#71 = AXIS2_PLACEMENT_3D ( 'NONE', #249, #209, #54 ) ;
#72 = FACE_OUTER_BOUND ( 'NONE', #43, .T. ) ;
#73 = APPROVAL_ROLE ( '' ) ;
#74 = DATE_TIME_ROLE ( 'classification_date' ) ;
#75 = ORIENTED_EDGE ( 'NONE', *, *, #93, .F. ) ;
#76 = CALENDAR_DATE ( 2022, 10, 3 ) ;
#77 = ORIENTED_EDGE ( 'NONE', *, *, #151, .F. ) ;
#78 = VERTEX_POINT ( 'NONE', #247 ) ;
#79 = EDGE_CURVE ( 'NONE', #142, #78, #66, .T. ) ;
#80 = FACE_BOUND ( 'NONE', #177, .T. ) ;
#81 = EDGE_LOOP ( 'NONE', ( #176, #203 ) ) ;
#82 = FACE_BOUND ( 'NONE', #81, .T. ) ;
#83 = EDGE_LOOP ( 'NONE', ( #179, #10 ) ) ;
#84 = DIRECTION ( 'NONE',  ( -1.000000000000000000, 0.000000000000000000, 0.000000000000000000 ) ) ;
#85 = CARTESIAN_POINT ( 'NONE',  ( -14.84999999999999964, 0.000000000000000000, 22.00000000000000000 ) ) ;
#86 =( LENGTH_UNIT ( ) NAMED_UNIT ( * ) SI_UNIT ( .MILLI., .METRE. ) );
#87 = CARTESIAN_POINT ( 'NONE',  ( 16.85000000000000142, 2.063529856563290244E-15, 22.00000000000000000 ) ) ;
#88 = APPROVAL_DATE_TIME ( #55, #130 ) ;
#89 = PERSON_AND_ORGANIZATION ( #40, #186 ) ;
#90 = APPROVAL_STATUS ( 'not_yet_approved' ) ;
#91 = AXIS2_PLACEMENT_3D ( 'NONE', #101, #2, #1 ) ;
#92 = PERSON_AND_ORGANIZATION ( #40, #186 ) ;
#93 = EDGE_CURVE ( 'NONE', #58, #78, #134, .T. ) ;
#94 = VERTEX_POINT ( 'NONE', #126 ) ;
#95 = ORIENTED_EDGE ( 'NONE', *, *, #79, .T. ) ;
#96 = CIRCLE ( 'NONE', #71, 14.84999999999999964 ) ;
#97 = LOCAL_TIME ( 12, 50, 19.00000000000000000, #3 ) ;
#98 = ORIENTED_EDGE ( 'NONE', *, *, #105, .F. ) ;
#99 = PRODUCT_DEFINITION_SHAPE ( 'NONE', 'NONE',  #189 ) ;
#100 = DIRECTION ( 'NONE',  ( 1.000000000000000000, 0.000000000000000000, -0.000000000000000000 ) ) ;
#101 = CARTESIAN_POINT ( 'NONE',  ( 0.000000000000000000, 0.000000000000000000, 22.00000000000000000 ) ) ;
#102 = AXIS2_PLACEMENT_3D ( 'NONE', #148, #30, #16 ) ;
#103 = CC_DESIGN_PERSON_AND_ORGANIZATION_ASSIGNMENT ( #92, #195, ( #211 ) ) ;
#104 = DIRECTION ( 'NONE',  ( 1.000000000000000000, 0.000000000000000000, 0.000000000000000000 ) ) ;
#105 = EDGE_CURVE ( 'NONE', #94, #244, #21, .T. ) ;
#106 = CARTESIAN_POINT ( 'NONE',  ( 16.85000000000000142, 2.063529856563290244E-15, 22.00000000000000000 ) ) ;
#107 = VECTOR ( 'NONE', #128, 1000.000000000000000 ) ;
#108 = LINE ( 'NONE', #87, #107 ) ;
#109 = DIRECTION ( 'NONE',  ( -0.000000000000000000, -0.000000000000000000, -1.000000000000000000 ) ) ;
#110 = MECHANICAL_CONTEXT ( 'NONE', #208, 'mechanical' ) ;
#111 = AXIS2_PLACEMENT_3D ( 'NONE', #17, #123, #104 ) ;
#112 = LOCAL_TIME ( 12, 50, 19.00000000000000000, #194 ) ;
#113 = PERSON_AND_ORGANIZATION_ROLE ( 'design_owner' ) ;
#114 = PERSON_AND_ORGANIZATION_ROLE ( 'design_supplier' ) ;
#115 = ADVANCED_FACE ( 'NONE', ( #72 ), #230, .T. ) ;
#116 = AXIS2_PLACEMENT_3D ( 'NONE', #167, #166, #147 ) ;
#117 = CC_DESIGN_APPROVAL ( #130, ( #138 ) ) ;
#118 = DIRECTION ( 'NONE',  ( -1.000000000000000000, 0.000000000000000000, 0.000000000000000000 ) ) ;
#119 = CARTESIAN_POINT ( 'NONE',  ( 0.000000000000000000, 0.000000000000000000, 22.00000000000000000 ) ) ;
#120 = FACE_OUTER_BOUND ( 'NONE', #83, .T. ) ;
#121 = EDGE_CURVE ( 'NONE', #78, #58, #96, .T. ) ;
#122 = EDGE_LOOP ( 'NONE', ( #221, #61, #246, #161 ) ) ;
#123 = DIRECTION ( 'NONE',  ( 0.000000000000000000, 0.000000000000000000, 1.000000000000000000 ) ) ;
#124 = DIRECTION ( 'NONE',  ( -0.000000000000000000, -0.000000000000000000, -1.000000000000000000 ) ) ;
#125 = PRODUCT_RELATED_PRODUCT_CATEGORY ( 'detail', '', ( #132 ) ) ;
#126 = CARTESIAN_POINT ( 'NONE',  ( -16.85000000000000142, 0.000000000000000000, 22.00000000000000000 ) ) ;
#127 = AXIS2_PLACEMENT_3D ( 'NONE', #150, #31, #65 ) ;
#128 = DIRECTION ( 'NONE',  ( -0.000000000000000000, -0.000000000000000000, -1.000000000000000000 ) ) ;
#129 = APPROVAL_STATUS ( 'not_yet_approved' ) ;
#130 = APPROVAL ( #210, 'NEURÈENÝ' ) ;
#131 = APPROVAL_ROLE ( '' ) ;
#132 = PRODUCT ( 'A_33,7x2-22-000', 'A_33,7x2-22-000', '', ( #110 ) ) ;
#133 = EDGE_CURVE ( 'NONE', #142, #23, #217, .T. ) ;
#134 = CIRCLE ( 'NONE', #127, 14.84999999999999964 ) ;
#135 = CYLINDRICAL_SURFACE ( 'NONE', #46, 16.85000000000000142 ) ;
#136 = ORIENTED_EDGE ( 'NONE', *, *, #219, .T. ) ;
#137 = CIRCLE ( 'NONE', #160, 16.85000000000000142 ) ;
#138 = PRODUCT_DEFINITION_FORMATION_WITH_SPECIFIED_SOURCE ( 'LIBOVOLNÝ', '', #132, .NOT_KNOWN. ) ;
#139 = DIRECTION ( 'NONE',  ( 0.000000000000000000, 0.000000000000000000, 1.000000000000000000 ) ) ;
#140 = DIRECTION ( 'NONE',  ( -0.000000000000000000, -0.000000000000000000, -1.000000000000000000 ) ) ;
#141 = CC_DESIGN_PERSON_AND_ORGANIZATION_ASSIGNMENT ( #89, #152, ( #189 ) ) ;
#142 = VERTEX_POINT ( 'NONE', #188 ) ;
#143 = ADVANCED_FACE ( 'NONE', ( #228 ), #144, .F. ) ;
#144 = CYLINDRICAL_SURFACE ( 'NONE', #218, 14.84999999999999964 ) ;
#145 = CLOSED_SHELL ( 'NONE', ( #70, #29, #27, #69, #115, #143 ) ) ;
#146 = LOCAL_TIME ( 12, 50, 19.00000000000000000, #156 ) ;
#147 = DIRECTION ( 'NONE',  ( 1.000000000000000000, 0.000000000000000000, 0.000000000000000000 ) ) ;
#148 = CARTESIAN_POINT ( 'NONE',  ( 0.000000000000000000, 0.000000000000000000, 22.00000000000000000 ) ) ;
#149 =( NAMED_UNIT ( * ) SI_UNIT ( $, .STERADIAN. ) SOLID_ANGLE_UNIT ( ) );
#150 = CARTESIAN_POINT ( 'NONE',  ( 0.000000000000000000, 0.000000000000000000, 0.000000000000000000 ) ) ;
#151 = EDGE_CURVE ( 'NONE', #244, #245, #108, .T. ) ;
#152 = PERSON_AND_ORGANIZATION_ROLE ( 'creator' ) ;
#153 = DESIGN_CONTEXT ( 'detailed design', #170, 'design' ) ;
#154 = PERSON_AND_ORGANIZATION ( #40, #186 ) ;
#155 = EDGE_CURVE ( 'NONE', #244, #94, #137, .T. ) ;
#156 = COORDINATED_UNIVERSAL_TIME_OFFSET ( 1, 0, .AHEAD. ) ;
#157 = CALENDAR_DATE ( 2022, 10, 3 ) ;
#158 = ORIENTED_EDGE ( 'NONE', *, *, #79, .F. ) ;
#159 = VECTOR ( 'NONE', #140, 1000.000000000000000 ) ;
#160 = AXIS2_PLACEMENT_3D ( 'NONE', #49, #227, #14 ) ;
#161 = ORIENTED_EDGE ( 'NONE', *, *, #193, .F. ) ;
#162 = FACE_OUTER_BOUND ( 'NONE', #180, .T. ) ;
#163 = CARTESIAN_POINT ( 'NONE',  ( 14.84999999999999964, 1.818600496733819553E-15, 0.000000000000000000 ) ) ;
#164 = EDGE_LOOP ( 'NONE', ( #242, #45, #240, #158 ) ) ;
#165 = APPROVAL ( #90, 'NEURÈENÝ' ) ;
#166 = DIRECTION ( 'NONE',  ( 0.000000000000000000, 0.000000000000000000, 1.000000000000000000 ) ) ;
#167 = CARTESIAN_POINT ( 'NONE',  ( 0.000000000000000000, 0.000000000000000000, 22.00000000000000000 ) ) ;
#168 = CC_DESIGN_PERSON_AND_ORGANIZATION_ASSIGNMENT ( #7, #114, ( #138 ) ) ;
#169 = APPROVAL_ROLE ( '' ) ;
#170 = APPLICATION_CONTEXT ( 'configuration controlled 3d designs of mechanical parts and assemblies' ) ;
#171 = SHAPE_DEFINITION_REPRESENTATION ( #99, #197 ) ;
#172 = PERSON_AND_ORGANIZATION ( #40, #186 ) ;
#173 = CIRCLE ( 'NONE', #63, 16.85000000000000142 ) ;
#174 = PERSON_AND_ORGANIZATION ( #40, #186 ) ;
#175 = DIRECTION ( 'NONE',  ( 1.000000000000000000, 0.000000000000000000, 0.000000000000000000 ) ) ;
#176 = ORIENTED_EDGE ( 'NONE', *, *, #121, .T. ) ;
#177 = EDGE_LOOP ( 'NONE', ( #224, #25 ) ) ;
#178 = VECTOR ( 'NONE', #187, 1000.000000000000000 ) ;
#179 = ORIENTED_EDGE ( 'NONE', *, *, #229, .F. ) ;
#180 = EDGE_LOOP ( 'NONE', ( #8, #9 ) ) ;
#181 = CC_DESIGN_PERSON_AND_ORGANIZATION_ASSIGNMENT ( #174, #35, ( #138 ) ) ;
#182 = FACE_OUTER_BOUND ( 'NONE', #164, .T. ) ;
#183 = AXIS2_PLACEMENT_3D ( 'NONE', #26, #28, #100 ) ;
#184 = CIRCLE ( 'NONE', #241, 14.84999999999999964 ) ;
#185 =( NAMED_UNIT ( * ) PLANE_ANGLE_UNIT ( ) SI_UNIT ( $, .RADIAN. ) );
#186 = ORGANIZATION ( 'NEURÈENÝ', 'NEURÈENÝ', '' ) ;
#187 = DIRECTION ( 'NONE',  ( -0.000000000000000000, -0.000000000000000000, -1.000000000000000000 ) ) ;
#188 = CARTESIAN_POINT ( 'NONE',  ( -14.84999999999999964, 0.000000000000000000, 22.00000000000000000 ) ) ;
#189 = PRODUCT_DEFINITION ( 'NEZNÁMÝ', '', #138, #153 ) ;
#190 = PERSON_AND_ORGANIZATION ( #40, #186 ) ;
#191 = UNCERTAINTY_MEASURE_WITH_UNIT (LENGTH_MEASURE( 1.000000000000000082E-05 ), #86, 'distance_accuracy_value', 'NONE');
#192 = DATE_AND_TIME ( #157, #112 ) ;
#193 = EDGE_CURVE ( 'NONE', #94, #216, #207, .T. ) ;
#194 = COORDINATED_UNIVERSAL_TIME_OFFSET ( 1, 0, .AHEAD. ) ;
#195 = PERSON_AND_ORGANIZATION_ROLE ( 'classification_officer' ) ;
#196 = DATE_TIME_ROLE ( 'creation_date' ) ;
#197 = ADVANCED_BREP_SHAPE_REPRESENTATION ( 'A_33,7x2-22-000', ( #44, #234 ), #213 ) ;
#198 = LINE ( 'NONE', #64, #159 ) ;
#199 = LOCAL_TIME ( 12, 50, 19.00000000000000000, #36 ) ;
#200 = FACE_OUTER_BOUND ( 'NONE', #122, .T. ) ;
#201 = PLANE ( 'NONE',  #183 ) ;
#202 = CARTESIAN_POINT ( 'NONE',  ( 14.84999999999999964, 1.818600496733819553E-15, 22.00000000000000000 ) ) ;
#203 = ORIENTED_EDGE ( 'NONE', *, *, #93, .T. ) ;
#204 = CARTESIAN_POINT ( 'NONE',  ( -16.85000000000000142, 0.000000000000000000, 22.00000000000000000 ) ) ;
#205 = CARTESIAN_POINT ( 'NONE',  ( 0.000000000000000000, 0.000000000000000000, 22.00000000000000000 ) ) ;
#206 = CC_DESIGN_APPROVAL ( #165, ( #211 ) ) ;
#207 = LINE ( 'NONE', #204, #225 ) ;
#208 = APPLICATION_CONTEXT ( 'configuration controlled 3d designs of mechanical parts and assemblies' ) ;
#209 = DIRECTION ( 'NONE',  ( 0.000000000000000000, 0.000000000000000000, 1.000000000000000000 ) ) ;
#210 = APPROVAL_STATUS ( 'not_yet_approved' ) ;
#211 = SECURITY_CLASSIFICATION ( '', '', #239 ) ;
#212 = AXIS2_PLACEMENT_3D ( 'NONE', #67, #124, #231 ) ;
#213 =( GEOMETRIC_REPRESENTATION_CONTEXT ( 3 ) GLOBAL_UNCERTAINTY_ASSIGNED_CONTEXT ( ( #191 ) ) GLOBAL_UNIT_ASSIGNED_CONTEXT ( ( #86, #185, #149 ) ) REPRESENTATION_CONTEXT ( 'NONE', 'WORKASPACE' ) );
#214 = COORDINATED_UNIVERSAL_TIME_OFFSET ( 1, 0, .AHEAD. ) ;
#215 = APPROVAL_DATE_TIME ( #20, #165 ) ;
#216 = VERTEX_POINT ( 'NONE', #226 ) ;
#217 = CIRCLE ( 'NONE', #102, 14.84999999999999964 ) ;
#218 = AXIS2_PLACEMENT_3D ( 'NONE', #68, #109, #84 ) ;
#219 = EDGE_CURVE ( 'NONE', #23, #142, #184, .T. ) ;
#220 = CARTESIAN_POINT ( 'NONE',  ( 0.000000000000000000, 0.000000000000000000, 22.00000000000000000 ) ) ;
#221 = ORIENTED_EDGE ( 'NONE', *, *, #155, .F. ) ;
#222 = CC_DESIGN_DATE_AND_TIME_ASSIGNMENT ( #192, #74, ( #211 ) ) ;
#223 = DIRECTION ( 'NONE',  ( 1.000000000000000000, 0.000000000000000000, -0.000000000000000000 ) ) ;
#224 = ORIENTED_EDGE ( 'NONE', *, *, #133, .F. ) ;
#225 = VECTOR ( 'NONE', #50, 1000.000000000000000 ) ;
#226 = CARTESIAN_POINT ( 'NONE',  ( -16.85000000000000142, 0.000000000000000000, 0.000000000000000000 ) ) ;
#227 = DIRECTION ( 'NONE',  ( 0.000000000000000000, 0.000000000000000000, 1.000000000000000000 ) ) ;
#228 = FACE_OUTER_BOUND ( 'NONE', #236, .T. ) ;
#229 = EDGE_CURVE ( 'NONE', #216, #245, #47, .T. ) ;
#230 = CYLINDRICAL_SURFACE ( 'NONE', #212, 16.85000000000000142 ) ;
#231 = DIRECTION ( 'NONE',  ( -1.000000000000000000, 0.000000000000000000, 0.000000000000000000 ) ) ;
#232 = DATE_AND_TIME ( #76, #97 ) ;
#233 = CARTESIAN_POINT ( 'NONE',  ( 0.000000000000000000, 0.000000000000000000, 0.000000000000000000 ) ) ;
#234 = AXIS2_PLACEMENT_3D ( 'NONE', #233, #4, #175 ) ;
#235 = CALENDAR_DATE ( 2022, 10, 3 ) ;
#236 = EDGE_LOOP ( 'NONE', ( #60, #136, #95, #75 ) ) ;
#237 = CC_DESIGN_PERSON_AND_ORGANIZATION_ASSIGNMENT ( #172, #113, ( #132 ) ) ;
#238 = APPROVAL ( #129, 'NEURÈENÝ' ) ;
#239 = SECURITY_CLASSIFICATION_LEVEL ( 'unclassified' ) ;
#240 = ORIENTED_EDGE ( 'NONE', *, *, #121, .F. ) ;
#241 = AXIS2_PLACEMENT_3D ( 'NONE', #205, #32, #51 ) ;
#242 = ORIENTED_EDGE ( 'NONE', *, *, #133, .T. ) ;
#243 = ORIENTED_EDGE ( 'NONE', *, *, #229, .T. ) ;
#244 = VERTEX_POINT ( 'NONE', #106 ) ;
#245 = VERTEX_POINT ( 'NONE', #34 ) ;
#246 = ORIENTED_EDGE ( 'NONE', *, *, #59, .T. ) ;
#247 = CARTESIAN_POINT ( 'NONE',  ( -14.84999999999999964, 0.000000000000000000, 0.000000000000000000 ) ) ;
#248 = APPROVAL_PERSON_ORGANIZATION ( #19, #165, #169 ) ;
#249 = CARTESIAN_POINT ( 'NONE',  ( 0.000000000000000000, 0.000000000000000000, 0.000000000000000000 ) ) ;
ENDSEC;
END-ISO-10303-21;
