ISO-10303-21;
HEADER;
FILE_DESCRIPTION (( 'STEP AP203' ),
    '1' );
FILE_NAME ('A19_005.STEP',
    '2023-04-13T13:04:23',
    ( '' ),
    ( '' ),
    'SwSTEP 2.0',
    'SolidWorks 2019',
    '' );
FILE_SCHEMA (( 'CONFIG_CONTROL_DESIGN' ));
ENDSEC;

DATA;
#1 = DATE_TIME_ROLE ( 'classification_date' ) ;
#2 = DIRECTION ( 'NONE',  ( -1.000000000000000000, 0.000000000000000000, -1.224646799147353207E-16 ) ) ;
#3 = ADVANCED_FACE ( 'NONE', ( #139 ), #259, .T. ) ;
#4 = FACE_OUTER_BOUND ( 'NONE', #80, .T. ) ;
#5 = DIRECTION ( 'NONE',  ( 0.000000000000000000, 0.000000000000000000, 1.000000000000000000 ) ) ;
#6 = AXIS2_PLACEMENT_3D ( 'NONE', #141, #83, #5 ) ;
#7 = DIRECTION ( 'NONE',  ( -0.000000000000000000, 1.000000000000000000, -0.000000000000000000 ) ) ;
#8 = CARTESIAN_POINT ( 'NONE',  ( 0.000000000000000000, 11.31466481495455767, 0.000000000000000000 ) ) ;
#9 = DIRECTION ( 'NONE',  ( -0.000000000000000000, 1.000000000000000000, -0.000000000000000000 ) ) ;
#10 = CIRCLE ( 'NONE', #363, 3.250891460884291373 ) ;
#11 = ORIENTED_EDGE ( 'NONE', *, *, #161, .T. ) ;
#12 =( GEOMETRIC_REPRESENTATION_CONTEXT ( 3 ) GLOBAL_UNCERTAINTY_ASSIGNED_CONTEXT ( ( #134 ) ) GLOBAL_UNIT_ASSIGNED_CONTEXT ( ( #231, #211, #38 ) ) REPRESENTATION_CONTEXT ( 'NONE', 'WORKASPACE' ) );
#13 = VERTEX_POINT ( 'NONE', #279 ) ;
#14 = EDGE_CURVE ( 'NONE', #243, #54, #334, .T. ) ;
#15 = AXIS2_PLACEMENT_3D ( 'NONE', #337, #97, #164 ) ;
#16 = ORIENTED_EDGE ( 'NONE', *, *, #258, .T. ) ;
#17 = CC_DESIGN_APPROVAL ( #224, ( #244 ) ) ;
#18 = EDGE_LOOP ( 'NONE', ( #304, #51, #133, #105 ) ) ;
#19 = DATE_AND_TIME ( #328, #222 ) ;
#20 = ORIENTED_EDGE ( 'NONE', *, *, #336, .T. ) ;
#21 = CARTESIAN_POINT ( 'NONE',  ( 0.000000000000000000, 11.31466481495455767, 2.650164532263538320 ) ) ;
#22 = CIRCLE ( 'NONE', #220, 2.650164532263538320 ) ;
#23 = CONICAL_SURFACE ( 'NONE', #35, 2.400164532263540096, 1.547376976976658991 ) ;
#24 = CIRCLE ( 'NONE', #329, 2.400164532263540096 ) ;
#25 = AXIS2_PLACEMENT_3D ( 'NONE', #91, #32, #98 ) ;
#26 = DIRECTION ( 'NONE',  ( 2.867781015821794425E-18, 0.9997257795607703557, -0.02341720909096774161 ) ) ;
#27 = APPLICATION_PROTOCOL_DEFINITION ( 'international standard', 'config_control_design', 1994, #40 ) ;
#28 = EDGE_CURVE ( 'NONE', #54, #359, #226, .T. ) ;
#29 = DIRECTION ( 'NONE',  ( 0.000000000000000000, 0.000000000000000000, 1.000000000000000000 ) ) ;
#30 = AXIS2_PLACEMENT_3D ( 'NONE', #292, #265, #310 ) ;
#31 = DIRECTION ( 'NONE',  ( -0.000000000000000000, 1.000000000000000000, -0.000000000000000000 ) ) ;
#32 = DIRECTION ( 'NONE',  ( -0.000000000000000000, 1.000000000000000000, -0.000000000000000000 ) ) ;
#33 = CARTESIAN_POINT ( 'NONE',  ( 2.650164532263538320, 11.31466481495455767, 3.245515511650383838E-16 ) ) ;
#34 = CARTESIAN_POINT ( 'NONE',  ( 0.000000000000000000, 11.30061448949997960, 3.250000000000000444 ) ) ;
#35 = AXIS2_PLACEMENT_3D ( 'NONE', #343, #312, #96 ) ;
#36 = CC_DESIGN_DATE_AND_TIME_ASSIGNMENT ( #144, #1, ( #123 ) ) ;
#37 = DIRECTION ( 'NONE',  ( 0.000000000000000000, 0.9997257795607703557, 0.02341720909096774161 ) ) ;
#38 =( NAMED_UNIT ( * ) SI_UNIT ( $, .STERADIAN. ) SOLID_ANGLE_UNIT ( ) );
#39 = DESIGN_CONTEXT ( 'detailed design', #167, 'design' ) ;
#40 = APPLICATION_CONTEXT ( 'configuration controlled 3d designs of mechanical parts and assemblies' ) ;
#41 = ORIENTED_EDGE ( 'NONE', *, *, #55, .T. ) ;
#42 = AXIS2_PLACEMENT_3D ( 'NONE', #323, #100, #237 ) ;
#43 = CC_DESIGN_PERSON_AND_ORGANIZATION_ASSIGNMENT ( #84, #253, ( #244 ) ) ;
#44 = AXIS2_PLACEMENT_3D ( 'NONE', #262, #311, #120 ) ;
#45 = VERTEX_POINT ( 'NONE', #347 ) ;
#46 = PRODUCT_DEFINITION_SHAPE ( 'NONE', 'NONE',  #244 ) ;
#47 = ORIENTED_EDGE ( 'NONE', *, *, #318, .T. ) ;
#48 = ORIENTED_EDGE ( 'NONE', *, *, #201, .F. ) ;
#49 = AXIS2_PLACEMENT_3D ( 'NONE', #225, #281, #284 ) ;
#50 = SPHERICAL_SURFACE ( 'NONE', #154, 2.650891460884291728 ) ;
#51 = ORIENTED_EDGE ( 'NONE', *, *, #240, .T. ) ;
#52 = APPROVAL_STATUS ( 'not_yet_approved' ) ;
#53 = AXIS2_PLACEMENT_3D ( 'NONE', #221, #207, #202 ) ;
#54 = VERTEX_POINT ( 'NONE', #254 ) ;
#55 = EDGE_CURVE ( 'NONE', #45, #282, #353, .T. ) ;
#56 = VECTOR ( 'NONE', #37, 1000.000000000000000 ) ;
#57 = APPROVAL ( #229, 'NEURÈENÝ' ) ;
#58 = DIRECTION ( 'NONE',  ( -0.000000000000000000, 1.000000000000000000, -0.000000000000000000 ) ) ;
#59 = DIRECTION ( 'NONE',  ( 0.000000000000000000, 0.000000000000000000, 1.000000000000000000 ) ) ;
#60 = PERSON_AND_ORGANIZATION ( #239, #104 ) ;
#61 = DIRECTION ( 'NONE',  ( 2.867781015821790188E-18, 0.9997257795607703557, -0.02341720909096770692 ) ) ;
#62 = CARTESIAN_POINT ( 'NONE',  ( -3.249999999999999556, 11.30061448949997960, -3.980102097228897738E-16 ) ) ;
#63 = APPROVAL_PERSON_ORGANIZATION ( #234, #57, #342 ) ;
#64 = CARTESIAN_POINT ( 'NONE',  ( 3.245515511650384824E-16, 11.31466481495455767, -2.650164532263538320 ) ) ;
#65 = FACE_OUTER_BOUND ( 'NONE', #18, .T. ) ;
#66 = LINE ( 'NONE', #297, #56 ) ;
#67 = DIRECTION ( 'NONE',  ( 0.000000000000000000, 0.000000000000000000, 1.000000000000000000 ) ) ;
#68 = ADVANCED_FACE ( 'NONE', ( #365 ), #127, .T. ) ;
#69 = AXIS2_PLACEMENT_3D ( 'NONE', #119, #86, #99 ) ;
#70 = DIRECTION ( 'NONE',  ( 0.000000000000000000, 0.000000000000000000, 1.000000000000000000 ) ) ;
#71 = CONICAL_SURFACE ( 'NONE', #78, 3.000000000000001776, 0.02341934981823620351 ) ;
#72 = COORDINATED_UNIVERSAL_TIME_OFFSET ( 1, 0, .AHEAD. ) ;
#73 = CARTESIAN_POINT ( 'NONE',  ( 3.306647104652805383E-16, 0.6416830809104212552, 2.400164532263540096 ) ) ;
#74 = ORIENTED_EDGE ( 'NONE', *, *, #305, .F. ) ;
#75 = ADVANCED_FACE ( 'NONE', ( #189 ), #293, .T. ) ;
#76 = ORIENTED_EDGE ( 'NONE', *, *, #55, .F. ) ;
#77 = ORIENTED_EDGE ( 'NONE', *, *, #137, .T. ) ;
#78 = AXIS2_PLACEMENT_3D ( 'NONE', #172, #260, #235 ) ;
#79 = EDGE_LOOP ( 'NONE', ( #47, #214, #106, #327, #326 ) ) ;
#80 = EDGE_LOOP ( 'NONE', ( #184, #331, #303, #272 ) ) ;
#81 = DATE_TIME_ROLE ( 'creation_date' ) ;
#82 = AXIS2_PLACEMENT_3D ( 'NONE', #314, #149, #136 ) ;
#83 = DIRECTION ( 'NONE',  ( -0.000000000000000000, 1.000000000000000000, -0.000000000000000000 ) ) ;
#84 = PERSON_AND_ORGANIZATION ( #239, #104 ) ;
#85 = APPROVAL_STATUS ( 'not_yet_approved' ) ;
#86 = DIRECTION ( 'NONE',  ( -0.000000000000000000, 1.000000000000000000, -0.000000000000000000 ) ) ;
#87 = PERSON_AND_ORGANIZATION_ROLE ( 'design_owner' ) ;
#88 = CC_DESIGN_PERSON_AND_ORGANIZATION_ASSIGNMENT ( #320, #147, ( #168 ) ) ;
#89 = VERTEX_POINT ( 'NONE', #62 ) ;
#90 = CIRCLE ( 'NONE', #42, 2.650164532263538320 ) ;
#91 = CARTESIAN_POINT ( 'NONE',  ( 0.000000000000000000, 11.30061448949997960, 0.000000000000000000 ) ) ;
#92 = CONICAL_SURFACE ( 'NONE', #324, 2.650164532263538320, 0.02341934981823616882 ) ;
#93 = AXIS2_PLACEMENT_3D ( 'NONE', #366, #31, #200 ) ;
#94 = AXIS2_PLACEMENT_3D ( 'NONE', #238, #352, #313 ) ;
#95 = CALENDAR_DATE ( 2023, 13, 4 ) ;
#96 = DIRECTION ( 'NONE',  ( 0.000000000000000000, 0.000000000000000000, -1.000000000000000000 ) ) ;
#97 = DIRECTION ( 'NONE',  ( 0.000000000000000000, 0.000000000000000000, -1.000000000000000000 ) ) ;
#98 = DIRECTION ( 'NONE',  ( 0.000000000000000000, 0.000000000000000000, 1.000000000000000000 ) ) ;
#99 = DIRECTION ( 'NONE',  ( 0.000000000000000000, 0.000000000000000000, 1.000000000000000000 ) ) ;
#100 = DIRECTION ( 'NONE',  ( -0.000000000000000000, 1.000000000000000000, -0.000000000000000000 ) ) ;
#101 = EDGE_CURVE ( 'NONE', #335, #359, #117, .T. ) ;
#102 = COORDINATED_UNIVERSAL_TIME_OFFSET ( 1, 0, .AHEAD. ) ;
#103 = CARTESIAN_POINT ( 'NONE',  ( 4.235347319083430179E-16, 11.37674129457154848, 0.000000000000000000 ) ) ;
#104 = ORGANIZATION ( 'NEURÈENÝ', 'NEURÈENÝ', '' ) ;
#105 = ORIENTED_EDGE ( 'NONE', *, *, #194, .F. ) ;
#106 = ORIENTED_EDGE ( 'NONE', *, *, #28, .F. ) ;
#107 = ORIENTED_EDGE ( 'NONE', *, *, #201, .T. ) ;
#108 = CC_DESIGN_PERSON_AND_ORGANIZATION_ASSIGNMENT ( #339, #87, ( #193 ) ) ;
#109 = ORIENTED_EDGE ( 'NONE', *, *, #112, .T. ) ;
#110 = ORIENTED_EDGE ( 'NONE', *, *, #101, .F. ) ;
#111 = DIRECTION ( 'NONE',  ( 0.000000000000000000, 0.000000000000000000, 1.000000000000000000 ) ) ;
#112 = EDGE_CURVE ( 'NONE', #282, #188, #263, .T. ) ;
#113 = VECTOR ( 'NONE', #61, 1000.000000000000000 ) ;
#114 = MECHANICAL_CONTEXT ( 'NONE', #40, 'mechanical' ) ;
#115 = CARTESIAN_POINT ( 'NONE',  ( 4.235347319083430179E-16, 11.37674129457154848, 0.000000000000000000 ) ) ;
#116 = AXIS2_PLACEMENT_3D ( 'NONE', #115, #59, #289 ) ;
#117 = LINE ( 'NONE', #233, #288 ) ;
#118 = LINE ( 'NONE', #349, #113 ) ;
#119 = CARTESIAN_POINT ( 'NONE',  ( 0.000000000000000000, 11.31466481495455767, 0.000000000000000000 ) ) ;
#120 = DIRECTION ( 'NONE',  ( 0.000000000000000000, 0.000000000000000000, 1.000000000000000000 ) ) ;
#121 = EDGE_CURVE ( 'NONE', #275, #301, #203, .T. ) ;
#122 = CARTESIAN_POINT ( 'NONE',  ( 4.235347319083430179E-16, 11.37674129457154848, 0.000000000000000000 ) ) ;
#123 = SECURITY_CLASSIFICATION ( '', '', #178 ) ;
#124 = PRODUCT_RELATED_PRODUCT_CATEGORY ( 'detail', '', ( #193 ) ) ;
#125 = CARTESIAN_POINT ( 'NONE',  ( 0.000000000000000000, 0.6416830809104212552, 0.000000000000000000 ) ) ;
#126 = DIRECTION ( 'NONE',  ( 0.000000000000000000, 0.000000000000000000, 1.000000000000000000 ) ) ;
#127 = CONICAL_SURFACE ( 'NONE', #216, 3.000000000000001776, 0.02341934981823620351 ) ;
#128 = ADVANCED_BREP_SHAPE_REPRESENTATION ( 'A19_005', ( #360, #49 ), #12 ) ;
#129 = ORIENTED_EDGE ( 'NONE', *, *, #336, .F. ) ;
#130 = EDGE_LOOP ( 'NONE', ( #41, #109, #48, #219 ) ) ;
#131 = VECTOR ( 'NONE', #150, 999.9999999999998863 ) ;
#132 = ADVANCED_FACE ( 'NONE', ( #145 ), #290, .F. ) ;
#133 = ORIENTED_EDGE ( 'NONE', *, *, #212, .F. ) ;
#134 = UNCERTAINTY_MEASURE_WITH_UNIT (LENGTH_MEASURE( 1.000000000000000082E-05 ), #231, 'distance_accuracy_value', 'NONE');
#135 = EDGE_LOOP ( 'NONE', ( #356, #153, #77, #11, #307 ) ) ;
#136 = DIRECTION ( 'NONE',  ( 0.000000000000000000, 0.000000000000000000, 1.000000000000000000 ) ) ;
#137 = EDGE_CURVE ( 'NONE', #282, #301, #166, .T. ) ;
#138 = CIRCLE ( 'NONE', #346, 2.650891460884291728 ) ;
#139 = FACE_OUTER_BOUND ( 'NONE', #274, .T. ) ;
#140 = LOCAL_TIME ( 15, 4, 23.00000000000000000, #102 ) ;
#141 = CARTESIAN_POINT ( 'NONE',  ( 0.000000000000000000, 11.30061448949997960, 0.000000000000000000 ) ) ;
#142 = FACE_OUTER_BOUND ( 'NONE', #191, .T. ) ;
#143 = EDGE_CURVE ( 'NONE', #54, #13, #10, .T. ) ;
#144 = DATE_AND_TIME ( #95, #140 ) ;
#145 = FACE_OUTER_BOUND ( 'NONE', #159, .T. ) ;
#146 = ADVANCED_FACE ( 'NONE', ( #65 ), #50, .F. ) ;
#147 = PERSON_AND_ORGANIZATION_ROLE ( 'design_supplier' ) ;
#148 = FACE_OUTER_BOUND ( 'NONE', #130, .T. ) ;
#149 = DIRECTION ( 'NONE',  ( -0.000000000000000000, 1.000000000000000000, -0.000000000000000000 ) ) ;
#150 = DIRECTION ( 'NONE',  ( 0.000000000000000000, -0.02341720909096916756, -0.9997257795607703557 ) ) ;
#151 = CIRCLE ( 'NONE', #25, 3.250000000000000444 ) ;
#152 = CARTESIAN_POINT ( 'NONE',  ( 3.673940397442062826E-16, 0.6276327554558397415, 3.000000000000003109 ) ) ;
#153 = ORIENTED_EDGE ( 'NONE', *, *, #271, .F. ) ;
#154 = AXIS2_PLACEMENT_3D ( 'NONE', #223, #338, #354 ) ;
#155 = APPROVAL_PERSON_ORGANIZATION ( #195, #224, #165 ) ;
#156 = VERTEX_POINT ( 'NONE', #33 ) ;
#157 = EDGE_LOOP ( 'NONE', ( #20, #186, #183, #299 ) ) ;
#158 = ORIENTED_EDGE ( 'NONE', *, *, #143, .T. ) ;
#159 = EDGE_LOOP ( 'NONE', ( #76, #246, #187, #217, #361 ) ) ;
#160 = CC_DESIGN_SECURITY_CLASSIFICATION ( #123, ( #168 ) ) ;
#161 = EDGE_CURVE ( 'NONE', #301, #156, #22, .T. ) ;
#162 = DIRECTION ( 'NONE',  ( 1.224310975964189917E-16, -0.02341720909096916756, 0.9997257795607703557 ) ) ;
#163 = APPROVAL_ROLE ( '' ) ;
#164 = DIRECTION ( 'NONE',  ( 1.000000000000000000, 0.000000000000000000, 0.000000000000000000 ) ) ;
#165 = APPROVAL_ROLE ( '' ) ;
#166 = LINE ( 'NONE', #21, #276 ) ;
#167 = APPLICATION_CONTEXT ( 'configuration controlled 3d designs of mechanical parts and assemblies' ) ;
#168 = PRODUCT_DEFINITION_FORMATION_WITH_SPECIFIED_SOURCE ( 'LIBOVOLNÝ', '', #193, .NOT_KNOWN. ) ;
#169 = CC_DESIGN_PERSON_AND_ORGANIZATION_ASSIGNMENT ( #264, #269, ( #123 ) ) ;
#170 = CARTESIAN_POINT ( 'NONE',  ( 0.000000000000000000, 0.6276327554558397415, -3.000000000000003109 ) ) ;
#171 = PERSON_AND_ORGANIZATION_ROLE ( 'creator' ) ;
#172 = CARTESIAN_POINT ( 'NONE',  ( 0.000000000000000000, 0.6276327554558397415, 0.000000000000000000 ) ) ;
#173 = CARTESIAN_POINT ( 'NONE',  ( 3.980102097228897738E-16, 11.30061448949997960, -3.250000000000000444 ) ) ;
#174 = CARTESIAN_POINT ( 'NONE',  ( 0.000000000000000000, 11.31466481495455767, 0.000000000000000000 ) ) ;
#175 = APPROVAL ( #85, 'NEURÈENÝ' ) ;
#176 = CARTESIAN_POINT ( 'NONE',  ( 0.000000000000000000, 0.6276327554558397415, 0.000000000000000000 ) ) ;
#177 = CARTESIAN_POINT ( 'NONE',  ( 4.235347319083430179E-16, 11.37674129457154848, 0.000000000000000000 ) ) ;
#178 = SECURITY_CLASSIFICATION_LEVEL ( 'unclassified' ) ;
#179 = DIRECTION ( 'NONE',  ( -0.000000000000000000, 1.000000000000000000, -0.000000000000000000 ) ) ;
#180 = CC_DESIGN_APPROVAL ( #57, ( #123 ) ) ;
#181 = CARTESIAN_POINT ( 'NONE',  ( 0.000000000000000000, 0.6416830809104212552, -2.400164532263540096 ) ) ;
#182 = APPROVAL_DATE_TIME ( #268, #57 ) ;
#183 = ORIENTED_EDGE ( 'NONE', *, *, #143, .F. ) ;
#184 = ORIENTED_EDGE ( 'NONE', *, *, #240, .F. ) ;
#185 = CIRCLE ( 'NONE', #296, 2.650891460884291728 ) ;
#186 = ORIENTED_EDGE ( 'NONE', *, *, #305, .T. ) ;
#187 = ORIENTED_EDGE ( 'NONE', *, *, #194, .T. ) ;
#188 = VERTEX_POINT ( 'NONE', #152 ) ;
#189 = FACE_OUTER_BOUND ( 'NONE', #157, .T. ) ;
#190 = PERSON_AND_ORGANIZATION ( #239, #104 ) ;
#191 = EDGE_LOOP ( 'NONE', ( #110, #107, #332, #218, #129 ) ) ;
#192 = APPLICATION_PROTOCOL_DEFINITION ( 'international standard', 'config_control_design', 1994, #167 ) ;
#193 = PRODUCT ( 'A19_005', 'A19_005', '', ( #114 ) ) ;
#194 = EDGE_CURVE ( 'NONE', #309, #275, #90, .T. ) ;
#195 = PERSON_AND_ORGANIZATION ( #239, #104 ) ;
#196 = LOCAL_TIME ( 15, 4, 23.00000000000000000, #348 ) ;
#197 = CONICAL_SURFACE ( 'NONE', #94, 2.400164532263540096, 1.547376976976658991 ) ;
#198 = DIRECTION ( 'NONE',  ( -0.000000000000000000, 1.000000000000000000, -0.000000000000000000 ) ) ;
#199 = APPROVAL_DATE_TIME ( #204, #175 ) ;
#200 = DIRECTION ( 'NONE',  ( 0.000000000000000000, 0.000000000000000000, 1.000000000000000000 ) ) ;
#201 = EDGE_CURVE ( 'NONE', #335, #188, #256, .T. ) ;
#202 = DIRECTION ( 'NONE',  ( 1.000000000000000000, 0.000000000000000000, 0.000000000000000000 ) ) ;
#203 = CIRCLE ( 'NONE', #247, 2.650164532263538320 ) ;
#204 = DATE_AND_TIME ( #261, #206 ) ;
#205 = CARTESIAN_POINT ( 'NONE',  ( 0.000000000000000000, 11.31466481495455767, 2.650164532263538320 ) ) ;
#206 = LOCAL_TIME ( 15, 4, 23.00000000000000000, #232 ) ;
#207 = DIRECTION ( 'NONE',  ( 0.000000000000000000, 0.000000000000000000, -1.000000000000000000 ) ) ;
#208 = SHAPE_DEFINITION_REPRESENTATION ( #46, #128 ) ;
#209 = CARTESIAN_POINT ( 'NONE',  ( 2.612144447853930993E-16, 14.02763275545584065, 0.000000000000000000 ) ) ;
#210 = DIRECTION ( 'NONE',  ( -0.000000000000000000, -0.000000000000000000, -1.000000000000000000 ) ) ;
#211 =( NAMED_UNIT ( * ) PLANE_ANGLE_UNIT ( ) SI_UNIT ( $, .RADIAN. ) );
#212 = EDGE_CURVE ( 'NONE', #275, #252, #138, .T. ) ;
#213 = DIRECTION ( 'NONE',  ( -1.224646799147353207E-16, 0.000000000000000000, 1.000000000000000000 ) ) ;
#214 = ORIENTED_EDGE ( 'NONE', *, *, #101, .T. ) ;
#215 = CC_DESIGN_PERSON_AND_ORGANIZATION_ASSIGNMENT ( #60, #171, ( #168 ) ) ;
#216 = AXIS2_PLACEMENT_3D ( 'NONE', #176, #7, #111 ) ;
#217 = ORIENTED_EDGE ( 'NONE', *, *, #121, .T. ) ;
#218 = ORIENTED_EDGE ( 'NONE', *, *, #294, .F. ) ;
#219 = ORIENTED_EDGE ( 'NONE', *, *, #258, .F. ) ;
#220 = AXIS2_PLACEMENT_3D ( 'NONE', #8, #179, #126 ) ;
#221 = CARTESIAN_POINT ( 'NONE',  ( 4.235347319083430179E-16, 11.37674129457154848, 0.000000000000000000 ) ) ;
#222 = LOCAL_TIME ( 15, 4, 23.00000000000000000, #72 ) ;
#223 = CARTESIAN_POINT ( 'NONE',  ( 4.235347319083430179E-16, 11.37674129457154848, 0.000000000000000000 ) ) ;
#224 = APPROVAL ( #52, 'NEURÈENÝ' ) ;
#225 = CARTESIAN_POINT ( 'NONE',  ( 0.000000000000000000, 0.000000000000000000, 0.000000000000000000 ) ) ;
#226 = CIRCLE ( 'NONE', #6, 3.250000000000000444 ) ;
#227 = AXIS2_PLACEMENT_3D ( 'NONE', #287, #58, #29 ) ;
#228 = SPHERICAL_SURFACE ( 'NONE', #116, 2.650891460884291728 ) ;
#229 = APPROVAL_STATUS ( 'not_yet_approved' ) ;
#230 = CARTESIAN_POINT ( 'NONE',  ( 2.939353811863548926E-16, 0.6416830809104212552, 2.400164532263540096 ) ) ;
#231 =( LENGTH_UNIT ( ) NAMED_UNIT ( * ) SI_UNIT ( .MILLI., .METRE. ) );
#232 = COORDINATED_UNIVERSAL_TIME_OFFSET ( 1, 0, .AHEAD. ) ;
#233 = CARTESIAN_POINT ( 'NONE',  ( 3.673940397442061840E-16, 0.6276327554558397415, -3.000000000000001776 ) ) ;
#234 = PERSON_AND_ORGANIZATION ( #239, #104 ) ;
#235 = DIRECTION ( 'NONE',  ( 0.000000000000000000, 0.000000000000000000, 1.000000000000000000 ) ) ;
#236 = CIRCLE ( 'NONE', #227, 3.000000000000001776 ) ;
#237 = DIRECTION ( 'NONE',  ( 0.000000000000000000, 0.000000000000000000, 1.000000000000000000 ) ) ;
#238 = CARTESIAN_POINT ( 'NONE',  ( 0.000000000000000000, 0.6416830809104212552, 0.000000000000000000 ) ) ;
#239 = PERSON ( 'NEURÈENÝ', 'NEURÈENÝ', 'NEURÈENÝ', ('NEURÈENÝ'), ('NEURÈENÝ'), ('NEURÈENÝ') ) ;
#240 = EDGE_CURVE ( 'NONE', #156, #252, #185, .T. ) ;
#241 = CARTESIAN_POINT ( 'NONE',  ( 0.000000000000000000, 0.6276327554558397415, 0.000000000000000000 ) ) ;
#242 = VECTOR ( 'NONE', #162, 999.9999999999998863 ) ;
#243 = VERTEX_POINT ( 'NONE', #34 ) ;
#244 = PRODUCT_DEFINITION ( 'NEZNÁMÝ', '', #168, #39 ) ;
#245 = EDGE_LOOP ( 'NONE', ( #306, #278, #16, #357 ) ) ;
#246 = ORIENTED_EDGE ( 'NONE', *, *, #330, .T. ) ;
#247 = AXIS2_PLACEMENT_3D ( 'NONE', #174, #344, #257 ) ;
#248 = LOCAL_TIME ( 15, 4, 23.00000000000000000, #255 ) ;
#249 = CC_DESIGN_APPROVAL ( #175, ( #168 ) ) ;
#250 = ORIENTED_EDGE ( 'NONE', *, *, #14, .T. ) ;
#251 = DATE_AND_TIME ( #280, #248 ) ;
#252 = VERTEX_POINT ( 'NONE', #209 ) ;
#253 = PERSON_AND_ORGANIZATION_ROLE ( 'creator' ) ;
#254 = CARTESIAN_POINT ( 'NONE',  ( 3.250000000000000444, 11.30061448949997960, 0.000000000000000000 ) ) ;
#255 = COORDINATED_UNIVERSAL_TIME_OFFSET ( 1, 0, .AHEAD. ) ;
#256 = CIRCLE ( 'NONE', #300, 3.000000000000001776 ) ;
#257 = DIRECTION ( 'NONE',  ( 0.000000000000000000, 0.000000000000000000, 1.000000000000000000 ) ) ;
#258 = EDGE_CURVE ( 'NONE', #45, #335, #295, .T. ) ;
#259 = SPHERICAL_SURFACE ( 'NONE', #15, 3.250891460884291373 ) ;
#260 = DIRECTION ( 'NONE',  ( -0.000000000000000000, 1.000000000000000000, -0.000000000000000000 ) ) ;
#261 = CALENDAR_DATE ( 2023, 13, 4 ) ;
#262 = CARTESIAN_POINT ( 'NONE',  ( 0.000000000000000000, 11.30061448949997960, 0.000000000000000000 ) ) ;
#263 = LINE ( 'NONE', #230, #242 ) ;
#264 = PERSON_AND_ORGANIZATION ( #239, #104 ) ;
#265 = DIRECTION ( 'NONE',  ( -0.000000000000000000, 1.000000000000000000, -0.000000000000000000 ) ) ;
#266 = CC_DESIGN_DATE_AND_TIME_ASSIGNMENT ( #251, #81, ( #244 ) ) ;
#267 = DIRECTION ( 'NONE',  ( 0.000000000000000000, 0.000000000000000000, 1.000000000000000000 ) ) ;
#268 = DATE_AND_TIME ( #319, #196 ) ;
#269 = PERSON_AND_ORGANIZATION_ROLE ( 'classification_officer' ) ;
#270 = DIRECTION ( 'NONE',  ( 1.000000000000000000, 0.000000000000000000, 1.224646799147353207E-16 ) ) ;
#271 = EDGE_CURVE ( 'NONE', #282, #45, #24, .T. ) ;
#272 = ORIENTED_EDGE ( 'NONE', *, *, #212, .T. ) ;
#273 = ORIENTED_EDGE ( 'NONE', *, *, #294, .T. ) ;
#274 = EDGE_LOOP ( 'NONE', ( #74, #273, #250, #158 ) ) ;
#275 = VERTEX_POINT ( 'NONE', #321 ) ;
#276 = VECTOR ( 'NONE', #285, 1000.000000000000000 ) ;
#277 = EDGE_CURVE ( 'NONE', #188, #243, #66, .T. ) ;
#278 = ORIENTED_EDGE ( 'NONE', *, *, #271, .T. ) ;
#279 = CARTESIAN_POINT ( 'NONE',  ( 6.225944230057135006E-16, 14.62763275545584030, 0.000000000000000000 ) ) ;
#280 = CALENDAR_DATE ( 2023, 13, 4 ) ;
#281 = DIRECTION ( 'NONE',  ( 0.000000000000000000, 0.000000000000000000, 1.000000000000000000 ) ) ;
#282 = VERTEX_POINT ( 'NONE', #73 ) ;
#283 = ADVANCED_FACE ( 'NONE', ( #298 ), #197, .F. ) ;
#284 = DIRECTION ( 'NONE',  ( 1.000000000000000000, 0.000000000000000000, 0.000000000000000000 ) ) ;
#285 = DIRECTION ( 'NONE',  ( 0.000000000000000000, 0.9997257795607703557, 0.02341720909096770692 ) ) ;
#286 = CIRCLE ( 'NONE', #44, 3.250000000000000444 ) ;
#287 = CARTESIAN_POINT ( 'NONE',  ( 0.000000000000000000, 0.6276327554558397415, 0.000000000000000000 ) ) ;
#288 = VECTOR ( 'NONE', #26, 1000.000000000000000 ) ;
#289 = DIRECTION ( 'NONE',  ( -1.000000000000000000, 0.000000000000000000, 0.000000000000000000 ) ) ;
#290 = CONICAL_SURFACE ( 'NONE', #69, 2.650164532263538320, 0.02341934981823616882 ) ;
#291 = FACE_OUTER_BOUND ( 'NONE', #135, .T. ) ;
#292 = CARTESIAN_POINT ( 'NONE',  ( 0.000000000000000000, 0.6416830809104212552, 0.000000000000000000 ) ) ;
#293 = SPHERICAL_SURFACE ( 'NONE', #53, 3.250891460884291373 ) ;
#294 = EDGE_CURVE ( 'NONE', #89, #243, #151, .T. ) ;
#295 = LINE ( 'NONE', #181, #131 ) ;
#296 = AXIS2_PLACEMENT_3D ( 'NONE', #103, #213, #270 ) ;
#297 = CARTESIAN_POINT ( 'NONE',  ( 0.000000000000000000, 0.6276327554558397415, 3.000000000000001776 ) ) ;
#298 = FACE_OUTER_BOUND ( 'NONE', #245, .T. ) ;
#299 = ORIENTED_EDGE ( 'NONE', *, *, #28, .T. ) ;
#300 = AXIS2_PLACEMENT_3D ( 'NONE', #241, #9, #70 ) ;
#301 = VERTEX_POINT ( 'NONE', #205 ) ;
#302 = APPROVAL_PERSON_ORGANIZATION ( #190, #175, #163 ) ;
#303 = ORIENTED_EDGE ( 'NONE', *, *, #121, .F. ) ;
#304 = ORIENTED_EDGE ( 'NONE', *, *, #358, .F. ) ;
#305 = EDGE_CURVE ( 'NONE', #89, #13, #351, .T. ) ;
#306 = ORIENTED_EDGE ( 'NONE', *, *, #112, .F. ) ;
#307 = ORIENTED_EDGE ( 'NONE', *, *, #358, .T. ) ;
#308 = ADVANCED_FACE ( 'NONE', ( #148 ), #23, .F. ) ;
#309 = VERTEX_POINT ( 'NONE', #64 ) ;
#310 = DIRECTION ( 'NONE',  ( 0.000000000000000000, 0.000000000000000000, 1.000000000000000000 ) ) ;
#311 = DIRECTION ( 'NONE',  ( -0.000000000000000000, 1.000000000000000000, -0.000000000000000000 ) ) ;
#312 = DIRECTION ( 'NONE',  ( 0.000000000000000000, -1.000000000000000000, 0.000000000000000000 ) ) ;
#313 = DIRECTION ( 'NONE',  ( 0.000000000000000000, 0.000000000000000000, -1.000000000000000000 ) ) ;
#314 = CARTESIAN_POINT ( 'NONE',  ( 0.000000000000000000, 11.30061448949997960, 0.000000000000000000 ) ) ;
#315 = CIRCLE ( 'NONE', #93, 2.650164532263538320 ) ;
#316 = DIRECTION ( 'NONE',  ( 1.224646799147353207E-16, 0.000000000000000000, -1.000000000000000000 ) ) ;
#317 = DIRECTION ( 'NONE',  ( 0.000000000000000000, 0.000000000000000000, 1.000000000000000000 ) ) ;
#318 = EDGE_CURVE ( 'NONE', #188, #335, #236, .T. ) ;
#319 = CALENDAR_DATE ( 2023, 13, 4 ) ;
#320 = PERSON_AND_ORGANIZATION ( #239, #104 ) ;
#321 = CARTESIAN_POINT ( 'NONE',  ( -2.650164532263537875, 11.31466481495455767, 0.000000000000000000 ) ) ;
#322 = CARTESIAN_POINT ( 'NONE',  ( 0.000000000000000000, 11.31466481495455767, 0.000000000000000000 ) ) ;
#323 = CARTESIAN_POINT ( 'NONE',  ( 0.000000000000000000, 11.31466481495455767, 0.000000000000000000 ) ) ;
#324 = AXIS2_PLACEMENT_3D ( 'NONE', #322, #198, #67 ) ;
#325 = DIRECTION ( 'NONE',  ( -0.000000000000000000, 1.000000000000000000, -0.000000000000000000 ) ) ;
#326 = ORIENTED_EDGE ( 'NONE', *, *, #277, .F. ) ;
#327 = ORIENTED_EDGE ( 'NONE', *, *, #14, .F. ) ;
#328 = CALENDAR_DATE ( 2023, 13, 4 ) ;
#329 = AXIS2_PLACEMENT_3D ( 'NONE', #125, #325, #267 ) ;
#330 = EDGE_CURVE ( 'NONE', #45, #309, #118, .T. ) ;
#331 = ORIENTED_EDGE ( 'NONE', *, *, #161, .F. ) ;
#332 = ORIENTED_EDGE ( 'NONE', *, *, #277, .T. ) ;
#333 = APPROVAL_DATE_TIME ( #19, #224 ) ;
#334 = CIRCLE ( 'NONE', #82, 3.250000000000000444 ) ;
#335 = VERTEX_POINT ( 'NONE', #170 ) ;
#336 = EDGE_CURVE ( 'NONE', #359, #89, #286, .T. ) ;
#337 = CARTESIAN_POINT ( 'NONE',  ( 4.235347319083430179E-16, 11.37674129457154848, 0.000000000000000000 ) ) ;
#338 = DIRECTION ( 'NONE',  ( 0.000000000000000000, 0.000000000000000000, 1.000000000000000000 ) ) ;
#339 = PERSON_AND_ORGANIZATION ( #239, #104 ) ;
#340 = CARTESIAN_POINT ( 'NONE',  ( 4.235347319083430179E-16, 11.37674129457154848, 0.000000000000000000 ) ) ;
#341 = ADVANCED_FACE ( 'NONE', ( #142 ), #71, .T. ) ;
#342 = APPROVAL_ROLE ( '' ) ;
#343 = CARTESIAN_POINT ( 'NONE',  ( 0.000000000000000000, 0.6416830809104212552, 0.000000000000000000 ) ) ;
#344 = DIRECTION ( 'NONE',  ( -0.000000000000000000, 1.000000000000000000, -0.000000000000000000 ) ) ;
#345 = ADVANCED_FACE ( 'NONE', ( #4 ), #228, .F. ) ;
#346 = AXIS2_PLACEMENT_3D ( 'NONE', #177, #210, #350 ) ;
#347 = CARTESIAN_POINT ( 'NONE',  ( 0.000000000000000000, 0.6416830809104212552, -2.400164532263540096 ) ) ;
#348 = COORDINATED_UNIVERSAL_TIME_OFFSET ( 1, 0, .AHEAD. ) ;
#349 = CARTESIAN_POINT ( 'NONE',  ( 3.245515511650384824E-16, 11.31466481495455767, -2.650164532263538320 ) ) ;
#350 = DIRECTION ( 'NONE',  ( -1.000000000000000000, 0.000000000000000000, 0.000000000000000000 ) ) ;
#351 = CIRCLE ( 'NONE', #355, 3.250891460884291373 ) ;
#352 = DIRECTION ( 'NONE',  ( 0.000000000000000000, -1.000000000000000000, 0.000000000000000000 ) ) ;
#353 = CIRCLE ( 'NONE', #30, 2.400164532263540096 ) ;
#354 = DIRECTION ( 'NONE',  ( -1.000000000000000000, 0.000000000000000000, 0.000000000000000000 ) ) ;
#355 = AXIS2_PLACEMENT_3D ( 'NONE', #340, #316, #2 ) ;
#356 = ORIENTED_EDGE ( 'NONE', *, *, #330, .F. ) ;
#357 = ORIENTED_EDGE ( 'NONE', *, *, #318, .F. ) ;
#358 = EDGE_CURVE ( 'NONE', #156, #309, #315, .T. ) ;
#359 = VERTEX_POINT ( 'NONE', #173 ) ;
#360 = MANIFOLD_SOLID_BREP ( 'Rotovat1', #362 ) ;
#361 = ORIENTED_EDGE ( 'NONE', *, *, #137, .F. ) ;
#362 = CLOSED_SHELL ( 'NONE', ( #132, #146, #75, #68, #308, #283, #341, #3, #345, #367 ) ) ;
#363 = AXIS2_PLACEMENT_3D ( 'NONE', #122, #317, #364 ) ;
#364 = DIRECTION ( 'NONE',  ( 1.000000000000000000, 0.000000000000000000, 0.000000000000000000 ) ) ;
#365 = FACE_OUTER_BOUND ( 'NONE', #79, .T. ) ;
#366 = CARTESIAN_POINT ( 'NONE',  ( 0.000000000000000000, 11.31466481495455767, 0.000000000000000000 ) ) ;
#367 = ADVANCED_FACE ( 'NONE', ( #291 ), #92, .F. ) ;
ENDSEC;
END-ISO-10303-21;
