ISO-10303-21;
HEADER;
FILE_DESCRIPTION (( 'STEP AP203' ),
    '1' );
FILE_NAME ('A19_47-PVC.STEP',
    '2024-04-19T08:56:24',
    ( '' ),
    ( '' ),
    'SwSTEP 2.0',
    'SolidWorks 2019',
    '' );
FILE_SCHEMA (( 'CONFIG_CONTROL_DESIGN' ));
ENDSEC;

DATA;
#1 = PERSON_AND_ORGANIZATION ( #23, #236 ) ;
#2 = CIRCLE ( 'NONE', #224, 7.000000000000000000 ) ;
#3 = LOCAL_TIME ( 10, 56, 24.00000000000000000, #213 ) ;
#4 = EDGE_LOOP ( 'NONE', ( #201, #27, #222, #47 ) ) ;
#5 = DIRECTION ( 'NONE',  ( -1.000000000000000000, 0.000000000000000000, 0.000000000000000000 ) ) ;
#6 = EDGE_LOOP ( 'NONE', ( #241, #200, #99, #65 ) ) ;
#7 = CARTESIAN_POINT ( 'NONE',  ( 0.000000000000000000, 0.000000000000000000, 0.000000000000000000 ) ) ;
#8 = FACE_OUTER_BOUND ( 'NONE', #6, .T. ) ;
#9 = DATE_AND_TIME ( #104, #202 ) ;
#10 = FACE_OUTER_BOUND ( 'NONE', #21, .T. ) ;
#11 = LINE ( 'NONE', #119, #44 ) ;
#12 = DIRECTION ( 'NONE',  ( -0.000000000000000000, -0.000000000000000000, -1.000000000000000000 ) ) ;
#13 = PERSON_AND_ORGANIZATION ( #23, #236 ) ;
#14 = CIRCLE ( 'NONE', #165, 24.00000000000000355 ) ;
#15 = EDGE_CURVE ( 'NONE', #24, #167, #22, .T. ) ;
#16 = DIRECTION ( 'NONE',  ( 1.000000000000000000, 0.000000000000000000, 0.000000000000000000 ) ) ;
#17 = EDGE_CURVE ( 'NONE', #167, #83, #96, .T. ) ;
#18 = EDGE_CURVE ( 'NONE', #83, #167, #172, .T. ) ;
#19 = CIRCLE ( 'NONE', #59, 7.000000000000000000 ) ;
#20 = ORIENTED_EDGE ( 'NONE', *, *, #15, .F. ) ;
#21 = EDGE_LOOP ( 'NONE', ( #105, #188 ) ) ;
#22 = LINE ( 'NONE', #128, #123 ) ;
#23 = PERSON ( 'NEURÈENÝ', 'NEURÈENÝ', 'NEURÈENÝ', ('NEURÈENÝ'), ('NEURÈENÝ'), ('NEURÈENÝ') ) ;
#24 = VERTEX_POINT ( 'NONE', #101 ) ;
#25 = LINE ( 'NONE', #89, #223 ) ;
#26 = EDGE_CURVE ( 'NONE', #24, #205, #14, .T. ) ;
#27 = ORIENTED_EDGE ( 'NONE', *, *, #15, .T. ) ;
#28 = COORDINATED_UNIVERSAL_TIME_OFFSET ( 1, 0, .AHEAD. ) ;
#29 = CARTESIAN_POINT ( 'NONE',  ( 0.000000000000000000, 0.000000000000000000, 0.000000000000000000 ) ) ;
#30 = DIRECTION ( 'NONE',  ( 1.000000000000000000, 0.000000000000000000, 0.000000000000000000 ) ) ;
#31 = FACE_OUTER_BOUND ( 'NONE', #67, .T. ) ;
#32 = CARTESIAN_POINT ( 'NONE',  ( 0.000000000000000000, 0.000000000000000000, 0.000000000000000000 ) ) ;
#33 = AXIS2_PLACEMENT_3D ( 'NONE', #244, #219, #130 ) ;
#34 = DIRECTION ( 'NONE',  ( 1.000000000000000000, 0.000000000000000000, 0.000000000000000000 ) ) ;
#35 = CARTESIAN_POINT ( 'NONE',  ( -7.000000000000000000, 0.000000000000000000, 0.7500000000000000000 ) ) ;
#36 = APPLICATION_CONTEXT ( 'configuration controlled 3d designs of mechanical parts and assemblies' ) ;
#37 = DATE_AND_TIME ( #198, #3 ) ;
#38 = EDGE_CURVE ( 'NONE', #181, #237, #79, .T. ) ;
#39 = PERSON_AND_ORGANIZATION_ROLE ( 'design_supplier' ) ;
#40 = PRODUCT_DEFINITION_SHAPE ( 'NONE', 'NONE',  #46 ) ;
#41 = PRODUCT ( 'A19_47-PVC', 'A19_47-PVC', '', ( #176 ) ) ;
#42 = ORIENTED_EDGE ( 'NONE', *, *, #163, .F. ) ;
#43 = ORIENTED_EDGE ( 'NONE', *, *, #54, .F. ) ;
#44 = VECTOR ( 'NONE', #120, 1000.000000000000000 ) ;
#45 = ORIENTED_EDGE ( 'NONE', *, *, #54, .T. ) ;
#46 = PRODUCT_DEFINITION ( 'NEZNÁMÝ', '', #145, #136 ) ;
#47 = ORIENTED_EDGE ( 'NONE', *, *, #243, .F. ) ;
#48 = DIRECTION ( 'NONE',  ( 0.000000000000000000, 0.000000000000000000, 1.000000000000000000 ) ) ;
#49 = CARTESIAN_POINT ( 'NONE',  ( 0.000000000000000000, 0.000000000000000000, 0.000000000000000000 ) ) ;
#50 = CYLINDRICAL_SURFACE ( 'NONE', #216, 24.00000000000000355 ) ;
#51 = FACE_OUTER_BOUND ( 'NONE', #4, .T. ) ;
#52 = CC_DESIGN_PERSON_AND_ORGANIZATION_ASSIGNMENT ( #233, #39, ( #145 ) ) ;
#53 =( LENGTH_UNIT ( ) NAMED_UNIT ( * ) SI_UNIT ( .MILLI., .METRE. ) );
#54 = EDGE_CURVE ( 'NONE', #237, #181, #2, .T. ) ;
#55 = APPROVAL_ROLE ( '' ) ;
#56 = DIRECTION ( 'NONE',  ( 0.000000000000000000, 0.000000000000000000, 1.000000000000000000 ) ) ;
#57 = APPROVAL_PERSON_ORGANIZATION ( #113, #102, #160 ) ;
#58 = CC_DESIGN_DATE_AND_TIME_ASSIGNMENT ( #37, #144, ( #46 ) ) ;
#59 = AXIS2_PLACEMENT_3D ( 'NONE', #73, #134, #34 ) ;
#60 = ADVANCED_BREP_SHAPE_REPRESENTATION ( 'A19_47-PVC', ( #231, #94 ), #195 ) ;
#61 = CARTESIAN_POINT ( 'NONE',  ( 0.000000000000000000, 0.000000000000000000, 0.7500000000000000000 ) ) ;
#62 = ADVANCED_FACE ( 'NONE', ( #107 ), #185, .F. ) ;
#63 = AXIS2_PLACEMENT_3D ( 'NONE', #84, #191, #5 ) ;
#64 = CC_DESIGN_PERSON_AND_ORGANIZATION_ASSIGNMENT ( #1, #116, ( #41 ) ) ;
#65 = ORIENTED_EDGE ( 'NONE', *, *, #143, .F. ) ;
#66 = AXIS2_PLACEMENT_3D ( 'NONE', #49, #174, #86 ) ;
#67 = EDGE_LOOP ( 'NONE', ( #20, #149, #126, #124 ) ) ;
#68 = EDGE_LOOP ( 'NONE', ( #43, #80 ) ) ;
#69 = CARTESIAN_POINT ( 'NONE',  ( 7.000000000000000000, 8.572527594031473190E-16, 0.7500000000000000000 ) ) ;
#70 = LOCAL_TIME ( 10, 56, 24.00000000000000000, #142 ) ;
#71 = COORDINATED_UNIVERSAL_TIME_OFFSET ( 1, 0, .AHEAD. ) ;
#72 = DIRECTION ( 'NONE',  ( 1.000000000000000000, 0.000000000000000000, -0.000000000000000000 ) ) ;
#73 = CARTESIAN_POINT ( 'NONE',  ( 0.000000000000000000, 0.000000000000000000, 0.000000000000000000 ) ) ;
#74 = APPROVAL_STATUS ( 'not_yet_approved' ) ;
#75 = DATE_AND_TIME ( #249, #70 ) ;
#76 = PLANE ( 'NONE',  #206 ) ;
#77 = ADVANCED_FACE ( 'NONE', ( #8 ), #150, .F. ) ;
#78 = CIRCLE ( 'NONE', #66, 7.000000000000000000 ) ;
#79 = CIRCLE ( 'NONE', #114, 7.000000000000000000 ) ;
#80 = ORIENTED_EDGE ( 'NONE', *, *, #38, .F. ) ;
#81 = ORIENTED_EDGE ( 'NONE', *, *, #225, .T. ) ;
#82 = UNCERTAINTY_MEASURE_WITH_UNIT (LENGTH_MEASURE( 1.000000000000000082E-05 ), #53, 'distance_accuracy_value', 'NONE');
#83 = VERTEX_POINT ( 'NONE', #204 ) ;
#84 = CARTESIAN_POINT ( 'NONE',  ( 0.000000000000000000, 0.000000000000000000, 0.7500000000000000000 ) ) ;
#85 = EDGE_LOOP ( 'NONE', ( #81, #155 ) ) ;
#86 = DIRECTION ( 'NONE',  ( 1.000000000000000000, 0.000000000000000000, 0.000000000000000000 ) ) ;
#87 = APPROVAL_PERSON_ORGANIZATION ( #194, #91, #187 ) ;
#88 =( NAMED_UNIT ( * ) PLANE_ANGLE_UNIT ( ) SI_UNIT ( $, .RADIAN. ) );
#89 = CARTESIAN_POINT ( 'NONE',  ( -7.000000000000000000, 0.000000000000000000, 0.7500000000000000000 ) ) ;
#90 = PERSON_AND_ORGANIZATION ( #23, #236 ) ;
#91 = APPROVAL ( #135, 'NEURÈENÝ' ) ;
#92 = FACE_OUTER_BOUND ( 'NONE', #85, .T. ) ;
#93 = DATE_AND_TIME ( #232, #230 ) ;
#94 = AXIS2_PLACEMENT_3D ( 'NONE', #32, #56, #16 ) ;
#95 = APPLICATION_PROTOCOL_DEFINITION ( 'international standard', 'config_control_design', 1994, #183 ) ;
#96 = CIRCLE ( 'NONE', #147, 24.00000000000000355 ) ;
#97 = CC_DESIGN_APPROVAL ( #91, ( #180 ) ) ;
#98 = EDGE_LOOP ( 'NONE', ( #45, #154, #42, #169 ) ) ;
#99 = ORIENTED_EDGE ( 'NONE', *, *, #109, .T. ) ;
#100 = CC_DESIGN_APPROVAL ( #229, ( #46 ) ) ;
#101 = CARTESIAN_POINT ( 'NONE',  ( 24.00000000000000355, 2.939152317953648289E-15, 0.7500000000000000000 ) ) ;
#102 = APPROVAL ( #74, 'NEURÈENÝ' ) ;
#103 = ORIENTED_EDGE ( 'NONE', *, *, #143, .T. ) ;
#104 = CALENDAR_DATE ( 2024, 19, 4 ) ;
#105 = ORIENTED_EDGE ( 'NONE', *, *, #18, .F. ) ;
#106 = CLOSED_SHELL ( 'NONE', ( #62, #217, #235, #117, #182, #77 ) ) ;
#107 = FACE_OUTER_BOUND ( 'NONE', #98, .T. ) ;
#108 = VECTOR ( 'NONE', #196, 1000.000000000000000 ) ;
#109 = EDGE_CURVE ( 'NONE', #237, #239, #25, .T. ) ;
#110 = CARTESIAN_POINT ( 'NONE',  ( 0.000000000000000000, 0.000000000000000000, 0.7500000000000000000 ) ) ;
#111 = CALENDAR_DATE ( 2024, 19, 4 ) ;
#112 = FACE_BOUND ( 'NONE', #221, .T. ) ;
#113 = PERSON_AND_ORGANIZATION ( #23, #236 ) ;
#114 = AXIS2_PLACEMENT_3D ( 'NONE', #61, #189, #207 ) ;
#115 = DIRECTION ( 'NONE',  ( -0.000000000000000000, -0.000000000000000000, -1.000000000000000000 ) ) ;
#116 = PERSON_AND_ORGANIZATION_ROLE ( 'design_owner' ) ;
#117 = ADVANCED_FACE ( 'NONE', ( #10, #112 ), #159, .F. ) ;
#118 = DIRECTION ( 'NONE',  ( -1.000000000000000000, 0.000000000000000000, 0.000000000000000000 ) ) ;
#119 = CARTESIAN_POINT ( 'NONE',  ( -24.00000000000000355, 0.000000000000000000, 0.7500000000000000000 ) ) ;
#120 = DIRECTION ( 'NONE',  ( -0.000000000000000000, -0.000000000000000000, -1.000000000000000000 ) ) ;
#121 = FACE_BOUND ( 'NONE', #68, .T. ) ;
#122 = CC_DESIGN_PERSON_AND_ORGANIZATION_ASSIGNMENT ( #13, #161, ( #46 ) ) ;
#123 = VECTOR ( 'NONE', #242, 1000.000000000000000 ) ;
#124 = ORIENTED_EDGE ( 'NONE', *, *, #18, .T. ) ;
#125 = CC_DESIGN_PERSON_AND_ORGANIZATION_ASSIGNMENT ( #90, #238, ( #180 ) ) ;
#126 = ORIENTED_EDGE ( 'NONE', *, *, #243, .T. ) ;
#127 = AXIS2_PLACEMENT_3D ( 'NONE', #208, #12, #175 ) ;
#128 = CARTESIAN_POINT ( 'NONE',  ( 24.00000000000000355, 2.939152317953648289E-15, 0.7500000000000000000 ) ) ;
#129 = DATE_TIME_ROLE ( 'classification_date' ) ;
#130 = DIRECTION ( 'NONE',  ( -1.000000000000000000, 0.000000000000000000, 0.000000000000000000 ) ) ;
#131 = DIRECTION ( 'NONE',  ( 1.000000000000000000, 0.000000000000000000, 0.000000000000000000 ) ) ;
#132 = APPROVAL_DATE_TIME ( #168, #91 ) ;
#133 = CARTESIAN_POINT ( 'NONE',  ( 0.000000000000000000, 0.000000000000000000, 0.7500000000000000000 ) ) ;
#134 = DIRECTION ( 'NONE',  ( 0.000000000000000000, 0.000000000000000000, 1.000000000000000000 ) ) ;
#135 = APPROVAL_STATUS ( 'not_yet_approved' ) ;
#136 = DESIGN_CONTEXT ( 'detailed design', #36, 'design' ) ;
#137 = DIRECTION ( 'NONE',  ( 0.000000000000000000, 0.000000000000000000, 1.000000000000000000 ) ) ;
#138 = APPROVAL_DATE_TIME ( #93, #102 ) ;
#139 = AXIS2_PLACEMENT_3D ( 'NONE', #140, #137, #72 ) ;
#140 = CARTESIAN_POINT ( 'NONE',  ( 0.000000000000000000, 0.000000000000000000, 0.000000000000000000 ) ) ;
#141 = APPROVAL_STATUS ( 'not_yet_approved' ) ;
#142 = COORDINATED_UNIVERSAL_TIME_OFFSET ( 1, 0, .AHEAD. ) ;
#143 = EDGE_CURVE ( 'NONE', #218, #239, #19, .T. ) ;
#144 = DATE_TIME_ROLE ( 'creation_date' ) ;
#145 = PRODUCT_DEFINITION_FORMATION_WITH_SPECIFIED_SOURCE ( 'LIBOVOLNÝ', '', #41, .NOT_KNOWN. ) ;
#146 = CC_DESIGN_DATE_AND_TIME_ASSIGNMENT ( #9, #129, ( #180 ) ) ;
#147 = AXIS2_PLACEMENT_3D ( 'NONE', #7, #171, #131 ) ;
#148 = CIRCLE ( 'NONE', #234, 24.00000000000000355 ) ;
#149 = ORIENTED_EDGE ( 'NONE', *, *, #225, .F. ) ;
#150 = CYLINDRICAL_SURFACE ( 'NONE', #33, 7.000000000000000000 ) ;
#151 = CC_DESIGN_APPROVAL ( #102, ( #145 ) ) ;
#152 = DIRECTION ( 'NONE',  ( 0.000000000000000000, 0.000000000000000000, 1.000000000000000000 ) ) ;
#153 = SHAPE_DEFINITION_REPRESENTATION ( #40, #60 ) ;
#154 = ORIENTED_EDGE ( 'NONE', *, *, #190, .T. ) ;
#155 = ORIENTED_EDGE ( 'NONE', *, *, #26, .T. ) ;
#156 = CYLINDRICAL_SURFACE ( 'NONE', #127, 24.00000000000000355 ) ;
#157 = CARTESIAN_POINT ( 'NONE',  ( 7.000000000000000000, 8.572527594031473190E-16, 0.7500000000000000000 ) ) ;
#158 = APPLICATION_PROTOCOL_DEFINITION ( 'international standard', 'config_control_design', 1994, #36 ) ;
#159 = PLANE ( 'NONE',  #139 ) ;
#160 = APPROVAL_ROLE ( '' ) ;
#161 = PERSON_AND_ORGANIZATION_ROLE ( 'creator' ) ;
#162 = CARTESIAN_POINT ( 'NONE',  ( -7.000000000000000000, 0.000000000000000000, 0.000000000000000000 ) ) ;
#163 = EDGE_CURVE ( 'NONE', #239, #218, #78, .T. ) ;
#164 = PRODUCT_RELATED_PRODUCT_CATEGORY ( 'detail', '', ( #41 ) ) ;
#165 = AXIS2_PLACEMENT_3D ( 'NONE', #133, #152, #184 ) ;
#166 = DIRECTION ( 'NONE',  ( 1.000000000000000000, 0.000000000000000000, 0.000000000000000000 ) ) ;
#167 = VERTEX_POINT ( 'NONE', #245 ) ;
#168 = DATE_AND_TIME ( #111, #211 ) ;
#169 = ORIENTED_EDGE ( 'NONE', *, *, #109, .F. ) ;
#170 = ORIENTED_EDGE ( 'NONE', *, *, #163, .T. ) ;
#171 = DIRECTION ( 'NONE',  ( 0.000000000000000000, 0.000000000000000000, 1.000000000000000000 ) ) ;
#172 = CIRCLE ( 'NONE', #177, 24.00000000000000355 ) ;
#173 = APPROVAL_PERSON_ORGANIZATION ( #178, #229, #55 ) ;
#174 = DIRECTION ( 'NONE',  ( 0.000000000000000000, 0.000000000000000000, 1.000000000000000000 ) ) ;
#175 = DIRECTION ( 'NONE',  ( -1.000000000000000000, 0.000000000000000000, 0.000000000000000000 ) ) ;
#176 = MECHANICAL_CONTEXT ( 'NONE', #183, 'mechanical' ) ;
#177 = AXIS2_PLACEMENT_3D ( 'NONE', #29, #48, #166 ) ;
#178 = PERSON_AND_ORGANIZATION ( #23, #236 ) ;
#179 = DIRECTION ( 'NONE',  ( 1.000000000000000000, 0.000000000000000000, -0.000000000000000000 ) ) ;
#180 = SECURITY_CLASSIFICATION ( '', '', #197 ) ;
#181 = VERTEX_POINT ( 'NONE', #157 ) ;
#182 = ADVANCED_FACE ( 'NONE', ( #31 ), #50, .T. ) ;
#183 = APPLICATION_CONTEXT ( 'configuration controlled 3d designs of mechanical parts and assemblies' ) ;
#184 = DIRECTION ( 'NONE',  ( 1.000000000000000000, 0.000000000000000000, 0.000000000000000000 ) ) ;
#185 = CYLINDRICAL_SURFACE ( 'NONE', #63, 7.000000000000000000 ) ;
#186 = CC_DESIGN_PERSON_AND_ORGANIZATION_ASSIGNMENT ( #246, #210, ( #145 ) ) ;
#187 = APPROVAL_ROLE ( '' ) ;
#188 = ORIENTED_EDGE ( 'NONE', *, *, #17, .F. ) ;
#189 = DIRECTION ( 'NONE',  ( 0.000000000000000000, 0.000000000000000000, 1.000000000000000000 ) ) ;
#190 = EDGE_CURVE ( 'NONE', #181, #218, #226, .T. ) ;
#191 = DIRECTION ( 'NONE',  ( -0.000000000000000000, -0.000000000000000000, -1.000000000000000000 ) ) ;
#192 = DIRECTION ( 'NONE',  ( 0.000000000000000000, 0.000000000000000000, 1.000000000000000000 ) ) ;
#193 = DIRECTION ( 'NONE',  ( 0.000000000000000000, 0.000000000000000000, 1.000000000000000000 ) ) ;
#194 = PERSON_AND_ORGANIZATION ( #23, #236 ) ;
#195 =( GEOMETRIC_REPRESENTATION_CONTEXT ( 3 ) GLOBAL_UNCERTAINTY_ASSIGNED_CONTEXT ( ( #82 ) ) GLOBAL_UNIT_ASSIGNED_CONTEXT ( ( #53, #88, #248 ) ) REPRESENTATION_CONTEXT ( 'NONE', 'WORKASPACE' ) );
#196 = DIRECTION ( 'NONE',  ( -0.000000000000000000, -0.000000000000000000, -1.000000000000000000 ) ) ;
#197 = SECURITY_CLASSIFICATION_LEVEL ( 'unclassified' ) ;
#198 = CALENDAR_DATE ( 2024, 19, 4 ) ;
#199 = CARTESIAN_POINT ( 'NONE',  ( 0.000000000000000000, 0.000000000000000000, 0.7500000000000000000 ) ) ;
#200 = ORIENTED_EDGE ( 'NONE', *, *, #38, .T. ) ;
#201 = ORIENTED_EDGE ( 'NONE', *, *, #26, .F. ) ;
#202 = LOCAL_TIME ( 10, 56, 24.00000000000000000, #71 ) ;
#203 = DIRECTION ( 'NONE',  ( 0.000000000000000000, 0.000000000000000000, 1.000000000000000000 ) ) ;
#204 = CARTESIAN_POINT ( 'NONE',  ( -24.00000000000000355, 0.000000000000000000, 0.000000000000000000 ) ) ;
#205 = VERTEX_POINT ( 'NONE', #212 ) ;
#206 = AXIS2_PLACEMENT_3D ( 'NONE', #199, #193, #179 ) ;
#207 = DIRECTION ( 'NONE',  ( 1.000000000000000000, 0.000000000000000000, 0.000000000000000000 ) ) ;
#208 = CARTESIAN_POINT ( 'NONE',  ( 0.000000000000000000, 0.000000000000000000, 0.7500000000000000000 ) ) ;
#209 = DIRECTION ( 'NONE',  ( -0.000000000000000000, -0.000000000000000000, -1.000000000000000000 ) ) ;
#210 = PERSON_AND_ORGANIZATION_ROLE ( 'creator' ) ;
#211 = LOCAL_TIME ( 10, 56, 24.00000000000000000, #28 ) ;
#212 = CARTESIAN_POINT ( 'NONE',  ( -24.00000000000000355, 0.000000000000000000, 0.7500000000000000000 ) ) ;
#213 = COORDINATED_UNIVERSAL_TIME_OFFSET ( 1, 0, .AHEAD. ) ;
#214 = APPROVAL_DATE_TIME ( #75, #229 ) ;
#215 = COORDINATED_UNIVERSAL_TIME_OFFSET ( 1, 0, .AHEAD. ) ;
#216 = AXIS2_PLACEMENT_3D ( 'NONE', #227, #115, #118 ) ;
#217 = ADVANCED_FACE ( 'NONE', ( #51 ), #156, .T. ) ;
#218 = VERTEX_POINT ( 'NONE', #228 ) ;
#219 = DIRECTION ( 'NONE',  ( -0.000000000000000000, -0.000000000000000000, -1.000000000000000000 ) ) ;
#220 = DIRECTION ( 'NONE',  ( 1.000000000000000000, 0.000000000000000000, 0.000000000000000000 ) ) ;
#221 = EDGE_LOOP ( 'NONE', ( #170, #103 ) ) ;
#222 = ORIENTED_EDGE ( 'NONE', *, *, #17, .T. ) ;
#223 = VECTOR ( 'NONE', #209, 1000.000000000000000 ) ;
#224 = AXIS2_PLACEMENT_3D ( 'NONE', #110, #203, #220 ) ;
#225 = EDGE_CURVE ( 'NONE', #205, #24, #148, .T. ) ;
#226 = LINE ( 'NONE', #69, #108 ) ;
#227 = CARTESIAN_POINT ( 'NONE',  ( 0.000000000000000000, 0.000000000000000000, 0.7500000000000000000 ) ) ;
#228 = CARTESIAN_POINT ( 'NONE',  ( 7.000000000000000000, 8.572527594031473190E-16, 0.000000000000000000 ) ) ;
#229 = APPROVAL ( #141, 'NEURÈENÝ' ) ;
#230 = LOCAL_TIME ( 10, 56, 24.00000000000000000, #215 ) ;
#231 = MANIFOLD_SOLID_BREP ( 'Pøidat vysunutím1', #106 ) ;
#232 = CALENDAR_DATE ( 2024, 19, 4 ) ;
#233 = PERSON_AND_ORGANIZATION ( #23, #236 ) ;
#234 = AXIS2_PLACEMENT_3D ( 'NONE', #247, #192, #30 ) ;
#235 = ADVANCED_FACE ( 'NONE', ( #92, #121 ), #76, .T. ) ;
#236 = ORGANIZATION ( 'NEURÈENÝ', 'NEURÈENÝ', '' ) ;
#237 = VERTEX_POINT ( 'NONE', #35 ) ;
#238 = PERSON_AND_ORGANIZATION_ROLE ( 'classification_officer' ) ;
#239 = VERTEX_POINT ( 'NONE', #162 ) ;
#240 = CC_DESIGN_SECURITY_CLASSIFICATION ( #180, ( #145 ) ) ;
#241 = ORIENTED_EDGE ( 'NONE', *, *, #190, .F. ) ;
#242 = DIRECTION ( 'NONE',  ( -0.000000000000000000, -0.000000000000000000, -1.000000000000000000 ) ) ;
#243 = EDGE_CURVE ( 'NONE', #205, #83, #11, .T. ) ;
#244 = CARTESIAN_POINT ( 'NONE',  ( 0.000000000000000000, 0.000000000000000000, 0.7500000000000000000 ) ) ;
#245 = CARTESIAN_POINT ( 'NONE',  ( 24.00000000000000355, 2.939152317953648289E-15, 0.000000000000000000 ) ) ;
#246 = PERSON_AND_ORGANIZATION ( #23, #236 ) ;
#247 = CARTESIAN_POINT ( 'NONE',  ( 0.000000000000000000, 0.000000000000000000, 0.7500000000000000000 ) ) ;
#248 =( NAMED_UNIT ( * ) SI_UNIT ( $, .STERADIAN. ) SOLID_ANGLE_UNIT ( ) );
#249 = CALENDAR_DATE ( 2024, 19, 4 ) ;
ENDSEC;
END-ISO-10303-21;
