ISO-10303-21;
HEADER;
FILE_DESCRIPTION (( 'STEP AP203' ),
    '1' );
FILE_NAME ('1003922_30_A9_42.STEP',
    '2022-11-10T11:56:13',
    ( '' ),
    ( '' ),
    'SwSTEP 2.0',
    'SolidWorks 2019',
    '' );
FILE_SCHEMA (( 'CONFIG_CONTROL_DESIGN' ));
ENDSEC;

DATA;
#1 = PERSON_AND_ORGANIZATION ( #190, #130 ) ;
#2 = ORIENTED_EDGE ( 'NONE', *, *, #3, .F. ) ;
#3 = EDGE_CURVE ( 'NONE', #165, #59, #179, .T. ) ;
#4 = EDGE_LOOP ( 'NONE', ( #228, #47, #45 ) ) ;
#5 = CARTESIAN_POINT ( 'NONE',  ( 0.000000000000000000, 7.730729273062619811, 0.000000000000000000 ) ) ;
#6 = AXIS2_PLACEMENT_3D ( 'NONE', #71, #7, #94 ) ;
#7 = DIRECTION ( 'NONE',  ( 0.000000000000000000, 1.000000000000000000, 0.000000000000000000 ) ) ;
#8 = CARTESIAN_POINT ( 'NONE',  ( 0.000000000000000000, 24.08072927306262301, 0.000000000000000000 ) ) ;
#9 = EDGE_CURVE ( 'NONE', #59, #165, #273, .T. ) ;
#10 = DIRECTION ( 'NONE',  ( 0.000000000000000000, 1.000000000000000000, 0.000000000000000000 ) ) ;
#11 = AXIS2_PLACEMENT_3D ( 'NONE', #16, #186, #77 ) ;
#12 = DIRECTION ( 'NONE',  ( 0.000000000000000000, 0.000000000000000000, -1.000000000000000000 ) ) ;
#13 = EDGE_CURVE ( 'NONE', #151, #129, #67, .T. ) ;
#14 = DIRECTION ( 'NONE',  ( 0.000000000000000000, 0.000000000000000000, 1.000000000000000000 ) ) ;
#15 = SPHERICAL_SURFACE ( 'NONE', #110, 27.64999999999999503 ) ;
#16 = CARTESIAN_POINT ( 'NONE',  ( 0.000000000000000000, 24.08072927306262301, 0.000000000000000000 ) ) ;
#17 = EDGE_CURVE ( 'NONE', #24, #253, #241, .T. ) ;
#18 = CIRCLE ( 'NONE', #210, 27.64999999999999503 ) ;
#19 = CC_DESIGN_APPROVAL ( #185, ( #126 ) ) ;
#20 = DIRECTION ( 'NONE',  ( 0.000000000000000000, -1.000000000000000000, 0.000000000000000000 ) ) ;
#21 = DIRECTION ( 'NONE',  ( 0.000000000000000000, 0.000000000000000000, -1.000000000000000000 ) ) ;
#22 = AXIS2_PLACEMENT_3D ( 'NONE', #154, #10, #219 ) ;
#23 = CARTESIAN_POINT ( 'NONE',  ( 0.000000000000000000, 24.08072927306262301, 0.000000000000000000 ) ) ;
#24 = VERTEX_POINT ( 'NONE', #265 ) ;
#25 = EDGE_CURVE ( 'NONE', #151, #24, #50, .T. ) ;
#26 = COORDINATED_UNIVERSAL_TIME_OFFSET ( 1, 0, .AHEAD. ) ;
#27 = PERSON_AND_ORGANIZATION_ROLE ( 'design_supplier' ) ;
#28 = ORIENTED_EDGE ( 'NONE', *, *, #63, .T. ) ;
#29 = CIRCLE ( 'NONE', #88, 21.45000000000000284 ) ;
#30 = DIRECTION ( 'NONE',  ( 0.000000000000000000, 1.000000000000000000, 0.000000000000000000 ) ) ;
#31 = CYLINDRICAL_SURFACE ( 'NONE', #53, 21.45000000000000284 ) ;
#32 = LOCAL_TIME ( 12, 56, 13.00000000000000000, #40 ) ;
#33 = ADVANCED_FACE ( 'NONE', ( #240 ), #112, .F. ) ;
#34 = CARTESIAN_POINT ( 'NONE',  ( 0.000000000000000000, 24.08072927306262301, 0.000000000000000000 ) ) ;
#35 = CARTESIAN_POINT ( 'NONE',  ( 1.570609519906480326E-15, 49.73072927306262159, 0.000000000000000000 ) ) ;
#36 = DIRECTION ( 'NONE',  ( 1.000000000000000000, 0.000000000000000000, 0.000000000000000000 ) ) ;
#37 = PRODUCT_DEFINITION ( 'NEZNÁMÝ', '', #217, #72 ) ;
#38 = DIRECTION ( 'NONE',  ( 0.000000000000000000, 1.000000000000000000, 0.000000000000000000 ) ) ;
#39 = CARTESIAN_POINT ( 'NONE',  ( -27.64999999999999503, 7.730729273062619811, 32.33248424935249687 ) ) ;
#40 = COORDINATED_UNIVERSAL_TIME_OFFSET ( 1, 0, .AHEAD. ) ;
#41 = PERSON_AND_ORGANIZATION ( #190, #130 ) ;
#42 = ORIENTED_EDGE ( 'NONE', *, *, #13, .F. ) ;
#43 = CALENDAR_DATE ( 2022, 10, 11 ) ;
#44 = CC_DESIGN_DATE_AND_TIME_ASSIGNMENT ( #124, #141, ( #37 ) ) ;
#45 = ORIENTED_EDGE ( 'NONE', *, *, #137, .T. ) ;
#46 = APPROVAL_DATE_TIME ( #266, #185 ) ;
#47 = ORIENTED_EDGE ( 'NONE', *, *, #100, .T. ) ;
#48 = AXIS2_PLACEMENT_3D ( 'NONE', #23, #21, #58 ) ;
#49 = DIRECTION ( 'NONE',  ( 0.000000000000000000, 1.000000000000000000, 0.000000000000000000 ) ) ;
#50 = CIRCLE ( 'NONE', #174, 21.45000000000000284 ) ;
#51 = DIRECTION ( 'NONE',  ( 0.000000000000000000, 1.000000000000000000, 0.000000000000000000 ) ) ;
#52 = CARTESIAN_POINT ( 'NONE',  ( -21.45000000000000284, 10.01587946938538032, -2.626867384171073346E-15 ) ) ;
#53 = AXIS2_PLACEMENT_3D ( 'NONE', #114, #264, #12 ) ;
#54 = FACE_OUTER_BOUND ( 'NONE', #146, .T. ) ;
#55 = DIRECTION ( 'NONE',  ( 0.000000000000000000, 0.000000000000000000, -1.000000000000000000 ) ) ;
#56 = ADVANCED_FACE ( 'NONE', ( #66 ), #31, .F. ) ;
#57 = DIRECTION ( 'NONE',  ( 1.000000000000000000, 0.000000000000000000, 0.000000000000000000 ) ) ;
#58 = DIRECTION ( 'NONE',  ( 1.000000000000000000, 0.000000000000000000, 0.000000000000000000 ) ) ;
#59 = VERTEX_POINT ( 'NONE', #69 ) ;
#60 = PERSON_AND_ORGANIZATION_ROLE ( 'creator' ) ;
#61 = APPLICATION_PROTOCOL_DEFINITION ( 'international standard', 'config_control_design', 1994, #276 ) ;
#62 = ORIENTED_EDGE ( 'NONE', *, *, #259, .T. ) ;
#63 = EDGE_CURVE ( 'NONE', #24, #165, #238, .T. ) ;
#64 = APPLICATION_PROTOCOL_DEFINITION ( 'international standard', 'config_control_design', 1994, #249 ) ;
#65 = ORIENTED_EDGE ( 'NONE', *, *, #145, .T. ) ;
#66 = FACE_OUTER_BOUND ( 'NONE', #142, .T. ) ;
#67 = CIRCLE ( 'NONE', #102, 25.64999999999999858 ) ;
#68 = UNCERTAINTY_MEASURE_WITH_UNIT (LENGTH_MEASURE( 1.000000000000000082E-05 ), #84, 'distance_accuracy_value', 'NONE');
#69 = CARTESIAN_POINT ( 'NONE',  ( 0.000000000000000000, 7.730729273062619811, -21.45000000000000284 ) ) ;
#70 = CARTESIAN_POINT ( 'NONE',  ( 0.000000000000000000, 10.01587946938538032, 0.000000000000000000 ) ) ;
#71 = CARTESIAN_POINT ( 'NONE',  ( 0.000000000000000000, 10.01587946938538032, 0.000000000000000000 ) ) ;
#72 = DESIGN_CONTEXT ( 'detailed design', #249, 'design' ) ;
#73 = DIRECTION ( 'NONE',  ( 0.000000000000000000, 0.000000000000000000, -1.000000000000000000 ) ) ;
#74 = CARTESIAN_POINT ( 'NONE',  ( 2.626867384171073346E-15, 7.730729273062619811, 21.45000000000000284 ) ) ;
#75 = EDGE_CURVE ( 'NONE', #253, #230, #29, .T. ) ;
#76 = CARTESIAN_POINT ( 'NONE',  ( 21.45000000000000284, 10.01587946938538032, 0.000000000000000000 ) ) ;
#77 = DIRECTION ( 'NONE',  ( -1.000000000000000000, 0.000000000000000000, -1.224646799147353207E-16 ) ) ;
#78 = DIRECTION ( 'NONE',  ( 0.000000000000000000, 0.000000000000000000, 1.000000000000000000 ) ) ;
#79 = ORIENTED_EDGE ( 'NONE', *, *, #75, .T. ) ;
#80 = AXIS2_PLACEMENT_3D ( 'NONE', #225, #159, #98 ) ;
#81 = APPROVAL_PERSON_ORGANIZATION ( #150, #95, #206 ) ;
#82 = APPROVAL_DATE_TIME ( #254, #274 ) ;
#83 = ORIENTED_EDGE ( 'NONE', *, *, #145, .F. ) ;
#84 =( LENGTH_UNIT ( ) NAMED_UNIT ( * ) SI_UNIT ( .MILLI., .METRE. ) );
#85 = ORIENTED_EDGE ( 'NONE', *, *, #137, .F. ) ;
#86 = CALENDAR_DATE ( 2022, 10, 11 ) ;
#87 = ORIENTED_EDGE ( 'NONE', *, *, #239, .F. ) ;
#88 = AXIS2_PLACEMENT_3D ( 'NONE', #118, #51, #272 ) ;
#89 = CARTESIAN_POINT ( 'NONE',  ( 0.000000000000000000, 0.000000000000000000, 0.000000000000000000 ) ) ;
#90 = ORIENTED_EDGE ( 'NONE', *, *, #239, .T. ) ;
#91 = DIRECTION ( 'NONE',  ( 0.000000000000000000, 0.000000000000000000, 1.000000000000000000 ) ) ;
#92 = DIRECTION ( 'NONE',  ( 1.000000000000000000, 0.000000000000000000, 0.000000000000000000 ) ) ;
#93 = COORDINATED_UNIVERSAL_TIME_OFFSET ( 1, 0, .AHEAD. ) ;
#94 = DIRECTION ( 'NONE',  ( 0.000000000000000000, 0.000000000000000000, 1.000000000000000000 ) ) ;
#95 = APPROVAL ( #194, 'NEURÈENÝ' ) ;
#96 = DIRECTION ( 'NONE',  ( 0.000000000000000000, 0.000000000000000000, 1.000000000000000000 ) ) ;
#97 = AXIS2_PLACEMENT_3D ( 'NONE', #8, #132, #92 ) ;
#98 = DIRECTION ( 'NONE',  ( 1.000000000000000000, 0.000000000000000000, 0.000000000000000000 ) ) ;
#99 = DIRECTION ( 'NONE',  ( 0.000000000000000000, 1.000000000000000000, 0.000000000000000000 ) ) ;
#100 = EDGE_CURVE ( 'NONE', #257, #242, #133, .T. ) ;
#101 = CARTESIAN_POINT ( 'NONE',  ( 0.000000000000000000, 20.00000000000000000, -21.45000000000000284 ) ) ;
#102 = AXIS2_PLACEMENT_3D ( 'NONE', #34, #176, #195 ) ;
#103 = FACE_OUTER_BOUND ( 'NONE', #232, .T. ) ;
#104 = CARTESIAN_POINT ( 'NONE',  ( -22.29798197146996941, 7.730729273062619811, -2.730715224880607873E-15 ) ) ;
#105 = MECHANICAL_CONTEXT ( 'NONE', #276, 'mechanical' ) ;
#106 = PERSON_AND_ORGANIZATION ( #190, #130 ) ;
#107 = ORIENTED_EDGE ( 'NONE', *, *, #100, .F. ) ;
#108 = PERSON_AND_ORGANIZATION_ROLE ( 'classification_officer' ) ;
#109 = VERTEX_POINT ( 'NONE', #244 ) ;
#110 = AXIS2_PLACEMENT_3D ( 'NONE', #182, #55, #222 ) ;
#111 = ORIENTED_EDGE ( 'NONE', *, *, #9, .T. ) ;
#112 = SPHERICAL_SURFACE ( 'NONE', #97, 25.64999999999999858 ) ;
#113 = SHAPE_DEFINITION_REPRESENTATION ( #178, #255 ) ;
#114 = CARTESIAN_POINT ( 'NONE',  ( 0.000000000000000000, 20.00000000000000000, 0.000000000000000000 ) ) ;
#115 = VECTOR ( 'NONE', #180, 1000.000000000000000 ) ;
#116 = ORIENTED_EDGE ( 'NONE', *, *, #63, .F. ) ;
#117 = PRODUCT ( '1003922_30_A9_42', '1003922_30_A9_42', '', ( #105 ) ) ;
#118 = CARTESIAN_POINT ( 'NONE',  ( 0.000000000000000000, 10.01587946938538032, 0.000000000000000000 ) ) ;
#119 = CARTESIAN_POINT ( 'NONE',  ( 0.000000000000000000, 24.08072927306262301, 0.000000000000000000 ) ) ;
#120 = AXIS2_PLACEMENT_3D ( 'NONE', #89, #78, #189 ) ;
#121 = CARTESIAN_POINT ( 'NONE',  ( 0.000000000000000000, 10.01587946938538032, -21.45000000000000284 ) ) ;
#122 = DIRECTION ( 'NONE',  ( 0.000000000000000000, -0.000000000000000000, 1.000000000000000000 ) ) ;
#123 = ORIENTED_EDGE ( 'NONE', *, *, #3, .T. ) ;
#124 = DATE_AND_TIME ( #43, #32 ) ;
#125 = CIRCLE ( 'NONE', #11, 27.64999999999999503 ) ;
#126 = SECURITY_CLASSIFICATION ( '', '', #227 ) ;
#127 =( NAMED_UNIT ( * ) SI_UNIT ( $, .STERADIAN. ) SOLID_ANGLE_UNIT ( ) );
#128 = ORIENTED_EDGE ( 'NONE', *, *, #9, .F. ) ;
#129 = VERTEX_POINT ( 'NONE', #35 ) ;
#130 = ORGANIZATION ( 'NEURÈENÝ', 'NEURÈENÝ', '' ) ;
#131 = ORIENTED_EDGE ( 'NONE', *, *, #223, .T. ) ;
#132 = DIRECTION ( 'NONE',  ( 0.000000000000000000, 0.000000000000000000, -1.000000000000000000 ) ) ;
#133 = CIRCLE ( 'NONE', #147, 22.29798197146996586 ) ;
#134 = CC_DESIGN_APPROVAL ( #95, ( #37 ) ) ;
#135 = CC_DESIGN_PERSON_AND_ORGANIZATION_ASSIGNMENT ( #41, #108, ( #126 ) ) ;
#136 = CARTESIAN_POINT ( 'NONE',  ( 0.000000000000000000, 20.00000000000000000, 0.000000000000000000 ) ) ;
#137 = EDGE_CURVE ( 'NONE', #242, #109, #18, .T. ) ;
#138 = CARTESIAN_POINT ( 'NONE',  ( 22.29798197146996941, 7.730729273062619811, 0.000000000000000000 ) ) ;
#139 = DIRECTION ( 'NONE',  ( 0.000000000000000000, 0.000000000000000000, 1.000000000000000000 ) ) ;
#140 = CIRCLE ( 'NONE', #250, 22.29798197146996586 ) ;
#141 = DATE_TIME_ROLE ( 'creation_date' ) ;
#142 = EDGE_LOOP ( 'NONE', ( #208, #28, #128, #87, #65 ) ) ;
#143 = DATE_AND_TIME ( #188, #226 ) ;
#144 =( NAMED_UNIT ( * ) PLANE_ANGLE_UNIT ( ) SI_UNIT ( $, .RADIAN. ) );
#145 = EDGE_CURVE ( 'NONE', #230, #151, #216, .T. ) ;
#146 = EDGE_LOOP ( 'NONE', ( #116, #218, #79, #90, #2 ) ) ;
#147 = AXIS2_PLACEMENT_3D ( 'NONE', #270, #99, #96 ) ;
#148 = DIRECTION ( 'NONE',  ( 0.000000000000000000, 1.000000000000000000, 0.000000000000000000 ) ) ;
#149 = EDGE_LOOP ( 'NONE', ( #214, #167, #211, #193 ) ) ;
#150 = PERSON_AND_ORGANIZATION ( #190, #130 ) ;
#151 = VERTEX_POINT ( 'NONE', #52 ) ;
#152 = APPROVAL_PERSON_ORGANIZATION ( #237, #185, #236 ) ;
#153 = CALENDAR_DATE ( 2022, 10, 11 ) ;
#154 = CARTESIAN_POINT ( 'NONE',  ( 0.000000000000000000, 7.730729273062619811, 0.000000000000000000 ) ) ;
#155 = ADVANCED_FACE ( 'NONE', ( #202 ), #15, .T. ) ;
#156 = VECTOR ( 'NONE', #20, 1000.000000000000000 ) ;
#157 = LOCAL_TIME ( 12, 56, 13.00000000000000000, #26 ) ;
#158 = FACE_OUTER_BOUND ( 'NONE', #4, .T. ) ;
#159 = DIRECTION ( 'NONE',  ( 0.000000000000000000, 0.000000000000000000, -1.000000000000000000 ) ) ;
#160 = PLANE ( 'NONE',  #245 ) ;
#161 = CLOSED_SHELL ( 'NONE', ( #155, #56, #246, #33, #204, #196, #166 ) ) ;
#162 = SPHERICAL_SURFACE ( 'NONE', #48, 25.64999999999999858 ) ;
#163 = LINE ( 'NONE', #101, #115 ) ;
#164 = EDGE_LOOP ( 'NONE', ( #42, #83, #260, #169 ) ) ;
#165 = VERTEX_POINT ( 'NONE', #74 ) ;
#166 = ADVANCED_FACE ( 'NONE', ( #158 ), #224, .T. ) ;
#167 = ORIENTED_EDGE ( 'NONE', *, *, #13, .T. ) ;
#168 = DATE_AND_TIME ( #86, #172 ) ;
#169 = ORIENTED_EDGE ( 'NONE', *, *, #233, .T. ) ;
#170 = CC_DESIGN_PERSON_AND_ORGANIZATION_ASSIGNMENT ( #187, #27, ( #217 ) ) ;
#171 = AXIS2_PLACEMENT_3D ( 'NONE', #201, #275, #139 ) ;
#172 = LOCAL_TIME ( 12, 56, 13.00000000000000000, #209 ) ;
#173 = EDGE_LOOP ( 'NONE', ( #62, #131, #85 ) ) ;
#174 = AXIS2_PLACEMENT_3D ( 'NONE', #70, #49, #91 ) ;
#175 = LOCAL_TIME ( 12, 56, 13.00000000000000000, #93 ) ;
#176 = DIRECTION ( 'NONE',  ( 1.224646799147353207E-16, 0.000000000000000000, -1.000000000000000000 ) ) ;
#177 = DIRECTION ( 'NONE',  ( 0.000000000000000000, 0.000000000000000000, 1.000000000000000000 ) ) ;
#178 = PRODUCT_DEFINITION_SHAPE ( 'NONE', 'NONE',  #37 ) ;
#179 = CIRCLE ( 'NONE', #184, 21.45000000000000284 ) ;
#180 = DIRECTION ( 'NONE',  ( 0.000000000000000000, -1.000000000000000000, 0.000000000000000000 ) ) ;
#181 = FACE_BOUND ( 'NONE', #235, .T. ) ;
#182 = CARTESIAN_POINT ( 'NONE',  ( 0.000000000000000000, 24.08072927306262301, 0.000000000000000000 ) ) ;
#183 = FACE_OUTER_BOUND ( 'NONE', #149, .T. ) ;
#184 = AXIS2_PLACEMENT_3D ( 'NONE', #267, #30, #177 ) ;
#185 = APPROVAL ( #198, 'NEURÈENÝ' ) ;
#186 = DIRECTION ( 'NONE',  ( 1.224646799147353207E-16, 0.000000000000000000, -1.000000000000000000 ) ) ;
#187 = PERSON_AND_ORGANIZATION ( #190, #130 ) ;
#188 = CALENDAR_DATE ( 2022, 10, 11 ) ;
#189 = DIRECTION ( 'NONE',  ( 1.000000000000000000, 0.000000000000000000, 0.000000000000000000 ) ) ;
#190 = PERSON ( 'NEURÈENÝ', 'NEURÈENÝ', 'NEURÈENÝ', ('NEURÈENÝ'), ('NEURÈENÝ'), ('NEURÈENÝ') ) ;
#191 = PERSON_AND_ORGANIZATION ( #190, #130 ) ;
#192 = CC_DESIGN_PERSON_AND_ORGANIZATION_ASSIGNMENT ( #191, #256, ( #117 ) ) ;
#193 = ORIENTED_EDGE ( 'NONE', *, *, #17, .F. ) ;
#194 = APPROVAL_STATUS ( 'not_yet_approved' ) ;
#195 = DIRECTION ( 'NONE',  ( -1.000000000000000000, 0.000000000000000000, -1.224646799147353207E-16 ) ) ;
#196 = ADVANCED_FACE ( 'NONE', ( #181, #103 ), #160, .F. ) ;
#197 = CIRCLE ( 'NONE', #205, 25.64999999999999858 ) ;
#198 = APPROVAL_STATUS ( 'not_yet_approved' ) ;
#199 = DIRECTION ( 'NONE',  ( 0.000000000000000000, -1.000000000000000000, 0.000000000000000000 ) ) ;
#200 =( GEOMETRIC_REPRESENTATION_CONTEXT ( 3 ) GLOBAL_UNCERTAINTY_ASSIGNED_CONTEXT ( ( #68 ) ) GLOBAL_UNIT_ASSIGNED_CONTEXT ( ( #84, #144, #127 ) ) REPRESENTATION_CONTEXT ( 'NONE', 'WORKASPACE' ) );
#201 = CARTESIAN_POINT ( 'NONE',  ( 0.000000000000000000, 10.01587946938538032, 0.000000000000000000 ) ) ;
#202 = FACE_OUTER_BOUND ( 'NONE', #173, .T. ) ;
#203 = CARTESIAN_POINT ( 'NONE',  ( 0.000000000000000000, 24.08072927306262301, 0.000000000000000000 ) ) ;
#204 = ADVANCED_FACE ( 'NONE', ( #54 ), #271, .F. ) ;
#205 = AXIS2_PLACEMENT_3D ( 'NONE', #203, #14, #57 ) ;
#206 = APPROVAL_ROLE ( '' ) ;
#207 = COORDINATED_UNIVERSAL_TIME_OFFSET ( 1, 0, .AHEAD. ) ;
#208 = ORIENTED_EDGE ( 'NONE', *, *, #25, .T. ) ;
#209 = COORDINATED_UNIVERSAL_TIME_OFFSET ( 1, 0, .AHEAD. ) ;
#210 = AXIS2_PLACEMENT_3D ( 'NONE', #119, #247, #36 ) ;
#211 = ORIENTED_EDGE ( 'NONE', *, *, #233, .F. ) ;
#212 = DIRECTION ( 'NONE',  ( 0.000000000000000000, 0.000000000000000000, 1.000000000000000000 ) ) ;
#213 = APPROVAL_STATUS ( 'not_yet_approved' ) ;
#214 = ORIENTED_EDGE ( 'NONE', *, *, #25, .F. ) ;
#215 = CC_DESIGN_DATE_AND_TIME_ASSIGNMENT ( #143, #234, ( #126 ) ) ;
#216 = CIRCLE ( 'NONE', #171, 21.45000000000000284 ) ;
#217 = PRODUCT_DEFINITION_FORMATION_WITH_SPECIFIED_SOURCE ( 'LIBOVOLNÝ', '', #117, .NOT_KNOWN. ) ;
#218 = ORIENTED_EDGE ( 'NONE', *, *, #17, .T. ) ;
#219 = DIRECTION ( 'NONE',  ( 0.000000000000000000, 0.000000000000000000, 1.000000000000000000 ) ) ;
#220 = APPROVAL_PERSON_ORGANIZATION ( #231, #274, #251 ) ;
#221 = CC_DESIGN_PERSON_AND_ORGANIZATION_ASSIGNMENT ( #106, #60, ( #217 ) ) ;
#222 = DIRECTION ( 'NONE',  ( 1.000000000000000000, 0.000000000000000000, 0.000000000000000000 ) ) ;
#223 = EDGE_CURVE ( 'NONE', #257, #109, #125, .T. ) ;
#224 = SPHERICAL_SURFACE ( 'NONE', #80, 27.64999999999999503 ) ;
#225 = CARTESIAN_POINT ( 'NONE',  ( 0.000000000000000000, 24.08072927306262301, 0.000000000000000000 ) ) ;
#226 = LOCAL_TIME ( 12, 56, 13.00000000000000000, #207 ) ;
#227 = SECURITY_CLASSIFICATION_LEVEL ( 'unclassified' ) ;
#228 = ORIENTED_EDGE ( 'NONE', *, *, #223, .F. ) ;
#229 = PERSON_AND_ORGANIZATION_ROLE ( 'creator' ) ;
#230 = VERTEX_POINT ( 'NONE', #121 ) ;
#231 = PERSON_AND_ORGANIZATION ( #190, #130 ) ;
#232 = EDGE_LOOP ( 'NONE', ( #262, #107 ) ) ;
#233 = EDGE_CURVE ( 'NONE', #253, #129, #197, .T. ) ;
#234 = DATE_TIME_ROLE ( 'classification_date' ) ;
#235 = EDGE_LOOP ( 'NONE', ( #111, #123 ) ) ;
#236 = APPROVAL_ROLE ( '' ) ;
#237 = PERSON_AND_ORGANIZATION ( #190, #130 ) ;
#238 = LINE ( 'NONE', #248, #156 ) ;
#239 = EDGE_CURVE ( 'NONE', #230, #59, #163, .T. ) ;
#240 = FACE_OUTER_BOUND ( 'NONE', #164, .T. ) ;
#241 = CIRCLE ( 'NONE', #6, 21.45000000000000284 ) ;
#242 = VERTEX_POINT ( 'NONE', #138 ) ;
#243 = MANIFOLD_SOLID_BREP ( 'Odebrat vysunutím2', #161 ) ;
#244 = CARTESIAN_POINT ( 'NONE',  ( 1.693074199821215474E-15, 51.73072927306261448, 0.000000000000000000 ) ) ;
#245 = AXIS2_PLACEMENT_3D ( 'NONE', #39, #38, #122 ) ;
#246 = ADVANCED_FACE ( 'NONE', ( #183 ), #162, .F. ) ;
#247 = DIRECTION ( 'NONE',  ( 0.000000000000000000, 0.000000000000000000, 1.000000000000000000 ) ) ;
#248 = CARTESIAN_POINT ( 'NONE',  ( 2.626867384171073346E-15, 20.00000000000000000, 21.45000000000000284 ) ) ;
#249 = APPLICATION_CONTEXT ( 'configuration controlled 3d designs of mechanical parts and assemblies' ) ;
#250 = AXIS2_PLACEMENT_3D ( 'NONE', #5, #148, #212 ) ;
#251 = APPROVAL_ROLE ( '' ) ;
#252 = CC_DESIGN_SECURITY_CLASSIFICATION ( #126, ( #217 ) ) ;
#253 = VERTEX_POINT ( 'NONE', #76 ) ;
#254 = DATE_AND_TIME ( #258, #157 ) ;
#255 = ADVANCED_BREP_SHAPE_REPRESENTATION ( '1003922_30_A9_42', ( #243, #120 ), #200 ) ;
#256 = PERSON_AND_ORGANIZATION_ROLE ( 'design_owner' ) ;
#257 = VERTEX_POINT ( 'NONE', #104 ) ;
#258 = CALENDAR_DATE ( 2022, 10, 11 ) ;
#259 = EDGE_CURVE ( 'NONE', #242, #257, #140, .T. ) ;
#260 = ORIENTED_EDGE ( 'NONE', *, *, #75, .F. ) ;
#261 = CC_DESIGN_APPROVAL ( #274, ( #217 ) ) ;
#262 = ORIENTED_EDGE ( 'NONE', *, *, #259, .F. ) ;
#263 = CC_DESIGN_PERSON_AND_ORGANIZATION_ASSIGNMENT ( #1, #229, ( #37 ) ) ;
#264 = DIRECTION ( 'NONE',  ( 0.000000000000000000, -1.000000000000000000, 0.000000000000000000 ) ) ;
#265 = CARTESIAN_POINT ( 'NONE',  ( 2.626867384171073346E-15, 10.01587946938538032, 21.45000000000000284 ) ) ;
#266 = DATE_AND_TIME ( #153, #175 ) ;
#267 = CARTESIAN_POINT ( 'NONE',  ( 0.000000000000000000, 7.730729273062619811, 0.000000000000000000 ) ) ;
#268 = PRODUCT_RELATED_PRODUCT_CATEGORY ( 'detail', '', ( #117 ) ) ;
#269 = AXIS2_PLACEMENT_3D ( 'NONE', #136, #199, #73 ) ;
#270 = CARTESIAN_POINT ( 'NONE',  ( 0.000000000000000000, 7.730729273062619811, 0.000000000000000000 ) ) ;
#271 = CYLINDRICAL_SURFACE ( 'NONE', #269, 21.45000000000000284 ) ;
#272 = DIRECTION ( 'NONE',  ( 0.000000000000000000, 0.000000000000000000, 1.000000000000000000 ) ) ;
#273 = CIRCLE ( 'NONE', #22, 21.45000000000000284 ) ;
#274 = APPROVAL ( #213, 'NEURÈENÝ' ) ;
#275 = DIRECTION ( 'NONE',  ( 0.000000000000000000, 1.000000000000000000, 0.000000000000000000 ) ) ;
#276 = APPLICATION_CONTEXT ( 'configuration controlled 3d designs of mechanical parts and assemblies' ) ;
#277 = APPROVAL_DATE_TIME ( #168, #95 ) ;
ENDSEC;
END-ISO-10303-21;
