ISO-10303-21;
HEADER;
FILE_DESCRIPTION (( 'STEP AP214' ),
    '1' );
FILE_NAME ('WB_D42-L.....STEP',
    '2021-03-12T13:18:41',
    ( '' ),
    ( '' ),
    'SwSTEP 2.0',
    'SolidWorks 2019',
    '' );
FILE_SCHEMA (( 'AUTOMOTIVE_DESIGN' ));
ENDSEC;

DATA;
#1 = CARTESIAN_POINT ( 'NONE',  ( 0.000000000000000000, 0.000000000000000000, 2500.000000000000000 ) ) ;
#2 = DIRECTION ( 'NONE',  ( -0.000000000000000000, -0.000000000000000000, -1.000000000000000000 ) ) ;
#3 = DIRECTION ( 'NONE',  ( 0.000000000000000000, 0.000000000000000000, 1.000000000000000000 ) ) ;
#4 = COLOUR_RGB ( '',1.000000000000000000, 1.000000000000000000, 1.000000000000000000 ) ;
#5 = DIRECTION ( 'NONE',  ( 1.000000000000000000, 0.000000000000000000, -0.000000000000000000 ) ) ;
#6 = PRODUCT_DEFINITION_CONTEXT ( 'detailed design', #99, 'design' ) ;
#7 = CIRCLE ( 'NONE', #55, 21.00000000000000000 ) ;
#8 = SURFACE_STYLE_USAGE ( .BOTH. , #35 ) ;
#9 = AXIS2_PLACEMENT_3D ( 'NONE', #61, #22, #18 ) ;
#10 = UNCERTAINTY_MEASURE_WITH_UNIT (LENGTH_MEASURE( 1.000000000000000082E-05 ), #113, 'distance_accuracy_value', 'NONE');
#11 = DIRECTION ( 'NONE',  ( -0.000000000000000000, -0.000000000000000000, -1.000000000000000000 ) ) ;
#12 = ORIENTED_EDGE ( 'NONE', *, *, #84, .F. ) ;
#13 = CARTESIAN_POINT ( 'NONE',  ( 0.000000000000000000, 0.000000000000000000, 0.000000000000000000 ) ) ;
#14 = SURFACE_STYLE_FILL_AREA ( #39 ) ;
#15 = CARTESIAN_POINT ( 'NONE',  ( 0.000000000000000000, 0.000000000000000000, 0.000000000000000000 ) ) ;
#16 = CARTESIAN_POINT ( 'NONE',  ( -21.00000000000000000, 0.000000000000000000, 2500.000000000000000 ) ) ;
#17 = PLANE ( 'NONE',  #44 ) ;
#18 = DIRECTION ( 'NONE',  ( 1.000000000000000000, 0.000000000000000000, 0.000000000000000000 ) ) ;
#19 = ORIENTED_EDGE ( 'NONE', *, *, #118, .T. ) ;
#20 = ORIENTED_EDGE ( 'NONE', *, *, #86, .F. ) ;
#21 = CLOSED_SHELL ( 'NONE', ( #30, #69, #95, #36 ) ) ;
#22 = DIRECTION ( 'NONE',  ( 0.000000000000000000, 0.000000000000000000, 1.000000000000000000 ) ) ;
#23 = AXIS2_PLACEMENT_3D ( 'NONE', #104, #11, #100 ) ;
#24 = FACE_OUTER_BOUND ( 'NONE', #140, .T. ) ;
#25 =( NAMED_UNIT ( * ) SI_UNIT ( $, .STERADIAN. ) SOLID_ANGLE_UNIT ( ) );
#26 =( GEOMETRIC_REPRESENTATION_CONTEXT ( 3 ) GLOBAL_UNCERTAINTY_ASSIGNED_CONTEXT ( ( #126 ) ) GLOBAL_UNIT_ASSIGNED_CONTEXT ( ( #88, #98, #25 ) ) REPRESENTATION_CONTEXT ( 'NONE', 'WORKASPACE' ) );
#27 = CARTESIAN_POINT ( 'NONE',  ( -21.00000000000000000, 0.000000000000000000, 0.000000000000000000 ) ) ;
#28 = EDGE_CURVE ( 'NONE', #46, #31, #105, .T. ) ;
#29 = CIRCLE ( 'NONE', #94, 21.00000000000000000 ) ;
#30 = ADVANCED_FACE ( 'NONE', ( #96 ), #138, .T. ) ;
#31 = VERTEX_POINT ( 'NONE', #16 ) ;
#32 = APPLICATION_PROTOCOL_DEFINITION ( 'draft international standard', 'automotive_design', 1998, #99 ) ;
#33 = PRODUCT_RELATED_PRODUCT_CATEGORY ( 'part', '', ( #103 ) ) ;
#34 = FILL_AREA_STYLE ('',( #80 ) ) ;
#35 = SURFACE_SIDE_STYLE ('',( #102 ) ) ;
#36 = ADVANCED_FACE ( 'NONE', ( #74 ), #53, .F. ) ;
#37 = MECHANICAL_DESIGN_GEOMETRIC_PRESENTATION_REPRESENTATION (  '', ( #97 ), #26 ) ;
#38 = ORIENTED_EDGE ( 'NONE', *, *, #58, .F. ) ;
#39 = FILL_AREA_STYLE ('',( #120 ) ) ;
#40 = CYLINDRICAL_SURFACE ( 'NONE', #82, 21.00000000000000000 ) ;
#41 = DIRECTION ( 'NONE',  ( 0.000000000000000000, 0.000000000000000000, 1.000000000000000000 ) ) ;
#42 = DIRECTION ( 'NONE',  ( 1.000000000000000000, 0.000000000000000000, 0.000000000000000000 ) ) ;
#43 =( LENGTH_UNIT ( ) NAMED_UNIT ( * ) SI_UNIT ( .MILLI., .METRE. ) );
#44 = AXIS2_PLACEMENT_3D ( 'NONE', #71, #3, #5 ) ;
#45 = ORIENTED_EDGE ( 'NONE', *, *, #135, .T. ) ;
#46 = VERTEX_POINT ( 'NONE', #76 ) ;
#47 = COLOUR_RGB ( '',1.000000000000000000, 1.000000000000000000, 1.000000000000000000 ) ;
#48 = VERTEX_POINT ( 'NONE', #110 ) ;
#49 = ORIENTED_EDGE ( 'NONE', *, *, #135, .F. ) ;
#50 = CARTESIAN_POINT ( 'NONE',  ( 21.00000000000000000, 2.571758278209441661E-15, 2500.000000000000000 ) ) ;
#51 = SURFACE_SIDE_STYLE ('',( #14 ) ) ;
#52 = CARTESIAN_POINT ( 'NONE',  ( 0.000000000000000000, 0.000000000000000000, 2500.000000000000000 ) ) ;
#53 = PLANE ( 'NONE',  #81 ) ;
#54 = DIRECTION ( 'NONE',  ( 1.000000000000000000, 0.000000000000000000, 0.000000000000000000 ) ) ;
#55 = AXIS2_PLACEMENT_3D ( 'NONE', #52, #41, #72 ) ;
#56 =( NAMED_UNIT ( * ) SI_UNIT ( $, .STERADIAN. ) SOLID_ANGLE_UNIT ( ) );
#57 = APPLICATION_PROTOCOL_DEFINITION ( 'draft international standard', 'automotive_design', 1998, #129 ) ;
#58 = EDGE_CURVE ( 'NONE', #46, #48, #122, .T. ) ;
#59 = VECTOR ( 'NONE', #114, 1000.000000000000000 ) ;
#60 = ORIENTED_EDGE ( 'NONE', *, *, #28, .F. ) ;
#61 = CARTESIAN_POINT ( 'NONE',  ( 0.000000000000000000, 0.000000000000000000, 2500.000000000000000 ) ) ;
#62 = VECTOR ( 'NONE', #65, 1000.000000000000000 ) ;
#63 = EDGE_LOOP ( 'NONE', ( #19, #108 ) ) ;
#64 = AXIS2_PLACEMENT_3D ( 'NONE', #15, #134, #42 ) ;
#65 = DIRECTION ( 'NONE',  ( -0.000000000000000000, -0.000000000000000000, -1.000000000000000000 ) ) ;
#66 = DIRECTION ( 'NONE',  ( 1.000000000000000000, 0.000000000000000000, 0.000000000000000000 ) ) ;
#67 = CARTESIAN_POINT ( 'NONE',  ( 0.000000000000000000, 0.000000000000000000, 0.000000000000000000 ) ) ;
#68 = FACE_OUTER_BOUND ( 'NONE', #63, .T. ) ;
#69 = ADVANCED_FACE ( 'NONE', ( #24 ), #40, .T. ) ;
#70 = DIRECTION ( 'NONE',  ( 0.000000000000000000, 0.000000000000000000, 1.000000000000000000 ) ) ;
#71 = CARTESIAN_POINT ( 'NONE',  ( 0.000000000000000000, 0.000000000000000000, 2500.000000000000000 ) ) ;
#72 = DIRECTION ( 'NONE',  ( 1.000000000000000000, 0.000000000000000000, 0.000000000000000000 ) ) ;
#73 = PRODUCT_DEFINITION_FORMATION_WITH_SPECIFIED_SOURCE ( 'LIBOVOLNÝ', '', #103, .NOT_KNOWN. ) ;
#74 = FACE_OUTER_BOUND ( 'NONE', #106, .T. ) ;
#75 = MANIFOLD_SOLID_BREP ( 'Pøidat vysunutím1', #21 ) ;
#76 = CARTESIAN_POINT ( 'NONE',  ( 21.00000000000000000, 2.571758278209441661E-15, 2500.000000000000000 ) ) ;
#77 = SHAPE_DEFINITION_REPRESENTATION ( #85, #109 ) ;
#78 =( GEOMETRIC_REPRESENTATION_CONTEXT ( 3 ) GLOBAL_UNCERTAINTY_ASSIGNED_CONTEXT ( ( #10 ) ) GLOBAL_UNIT_ASSIGNED_CONTEXT ( ( #113, #124, #56 ) ) REPRESENTATION_CONTEXT ( 'NONE', 'WORKASPACE' ) );
#79 = DIRECTION ( 'NONE',  ( 1.000000000000000000, 0.000000000000000000, -0.000000000000000000 ) ) ;
#80 = FILL_AREA_STYLE_COLOUR ( '', #47 ) ;
#81 = AXIS2_PLACEMENT_3D ( 'NONE', #13, #132, #79 ) ;
#82 = AXIS2_PLACEMENT_3D ( 'NONE', #1, #2, #101 ) ;
#83 =( GEOMETRIC_REPRESENTATION_CONTEXT ( 3 ) GLOBAL_UNCERTAINTY_ASSIGNED_CONTEXT ( ( #115 ) ) GLOBAL_UNIT_ASSIGNED_CONTEXT ( ( #43, #92, #93 ) ) REPRESENTATION_CONTEXT ( 'NONE', 'WORKASPACE' ) );
#84 = EDGE_CURVE ( 'NONE', #31, #128, #125, .T. ) ;
#85 = PRODUCT_DEFINITION_SHAPE ( 'NONE', 'NONE',  #137 ) ;
#86 = EDGE_CURVE ( 'NONE', #128, #48, #29, .T. ) ;
#87 = ORIENTED_EDGE ( 'NONE', *, *, #118, .F. ) ;
#88 =( LENGTH_UNIT ( ) NAMED_UNIT ( * ) SI_UNIT ( .MILLI., .METRE. ) );
#89 = CARTESIAN_POINT ( 'NONE',  ( 0.000000000000000000, 0.000000000000000000, 0.000000000000000000 ) ) ;
#90 = SURFACE_STYLE_USAGE ( .BOTH. , #51 ) ;
#91 = CIRCLE ( 'NONE', #64, 21.00000000000000000 ) ;
#92 =( NAMED_UNIT ( * ) PLANE_ANGLE_UNIT ( ) SI_UNIT ( $, .RADIAN. ) );
#93 =( NAMED_UNIT ( * ) SI_UNIT ( $, .STERADIAN. ) SOLID_ANGLE_UNIT ( ) );
#94 = AXIS2_PLACEMENT_3D ( 'NONE', #67, #70, #54 ) ;
#95 = ADVANCED_FACE ( 'NONE', ( #68 ), #17, .T. ) ;
#96 = FACE_OUTER_BOUND ( 'NONE', #127, .T. ) ;
#97 = STYLED_ITEM ( 'NONE', ( #112 ), #75 ) ;
#98 =( NAMED_UNIT ( * ) PLANE_ANGLE_UNIT ( ) SI_UNIT ( $, .RADIAN. ) );
#99 = APPLICATION_CONTEXT ( 'automotive_design' ) ;
#100 = DIRECTION ( 'NONE',  ( -1.000000000000000000, 0.000000000000000000, 0.000000000000000000 ) ) ;
#101 = DIRECTION ( 'NONE',  ( -1.000000000000000000, 0.000000000000000000, 0.000000000000000000 ) ) ;
#102 = SURFACE_STYLE_FILL_AREA ( #34 ) ;
#103 = PRODUCT ( 'WB_D42-L....', 'WB_D42-L....', '', ( #111 ) ) ;
#104 = CARTESIAN_POINT ( 'NONE',  ( 0.000000000000000000, 0.000000000000000000, 2500.000000000000000 ) ) ;
#105 = CIRCLE ( 'NONE', #9, 21.00000000000000000 ) ;
#106 = EDGE_LOOP ( 'NONE', ( #20, #49 ) ) ;
#107 = MECHANICAL_DESIGN_GEOMETRIC_PRESENTATION_REPRESENTATION (  '', ( #119 ), #83 ) ;
#108 = ORIENTED_EDGE ( 'NONE', *, *, #28, .T. ) ;
#109 = ADVANCED_BREP_SHAPE_REPRESENTATION ( 'WB_D42-L....', ( #75, #133 ), #78 ) ;
#110 = CARTESIAN_POINT ( 'NONE',  ( 21.00000000000000000, 2.571758278209441661E-15, 0.000000000000000000 ) ) ;
#111 = PRODUCT_CONTEXT ( 'NONE', #129, 'mechanical' ) ;
#112 = PRESENTATION_STYLE_ASSIGNMENT (( #90 ) ) ;
#113 =( LENGTH_UNIT ( ) NAMED_UNIT ( * ) SI_UNIT ( .MILLI., .METRE. ) );
#114 = DIRECTION ( 'NONE',  ( -0.000000000000000000, -0.000000000000000000, -1.000000000000000000 ) ) ;
#115 = UNCERTAINTY_MEASURE_WITH_UNIT (LENGTH_MEASURE( 1.000000000000000082E-05 ), #43, 'distance_accuracy_value', 'NONE');
#116 = PRESENTATION_LAYER_ASSIGNMENT (  '', '', ( #97 ) ) ;
#117 = ORIENTED_EDGE ( 'NONE', *, *, #58, .T. ) ;
#118 = EDGE_CURVE ( 'NONE', #31, #46, #7, .T. ) ;
#119 = STYLED_ITEM ( 'NONE', ( #123 ), #109 ) ;
#120 = FILL_AREA_STYLE_COLOUR ( '', #4 ) ;
#121 = PRESENTATION_LAYER_ASSIGNMENT (  '', '', ( #119 ) ) ;
#122 = LINE ( 'NONE', #50, #62 ) ;
#123 = PRESENTATION_STYLE_ASSIGNMENT (( #8 ) ) ;
#124 =( NAMED_UNIT ( * ) PLANE_ANGLE_UNIT ( ) SI_UNIT ( $, .RADIAN. ) );
#125 = LINE ( 'NONE', #136, #59 ) ;
#126 = UNCERTAINTY_MEASURE_WITH_UNIT (LENGTH_MEASURE( 1.000000000000000082E-05 ), #88, 'distance_accuracy_value', 'NONE');
#127 = EDGE_LOOP ( 'NONE', ( #60, #117, #45, #12 ) ) ;
#128 = VERTEX_POINT ( 'NONE', #27 ) ;
#129 = APPLICATION_CONTEXT ( 'automotive_design' ) ;
#130 = ORIENTED_EDGE ( 'NONE', *, *, #84, .T. ) ;
#131 = DIRECTION ( 'NONE',  ( 0.000000000000000000, 0.000000000000000000, 1.000000000000000000 ) ) ;
#132 = DIRECTION ( 'NONE',  ( 0.000000000000000000, 0.000000000000000000, 1.000000000000000000 ) ) ;
#133 = AXIS2_PLACEMENT_3D ( 'NONE', #89, #131, #66 ) ;
#134 = DIRECTION ( 'NONE',  ( 0.000000000000000000, 0.000000000000000000, 1.000000000000000000 ) ) ;
#135 = EDGE_CURVE ( 'NONE', #48, #128, #91, .T. ) ;
#136 = CARTESIAN_POINT ( 'NONE',  ( -21.00000000000000000, 0.000000000000000000, 2500.000000000000000 ) ) ;
#137 = PRODUCT_DEFINITION ( 'NEZNÁMÝ', '', #73, #6 ) ;
#138 = CYLINDRICAL_SURFACE ( 'NONE', #23, 21.00000000000000000 ) ;
#139 = ORIENTED_EDGE ( 'NONE', *, *, #86, .T. ) ;
#140 = EDGE_LOOP ( 'NONE', ( #38, #87, #130, #139 ) ) ;
ENDSEC;
END-ISO-10303-21;
